  0
SECTION
  2
HEADER
  9
$ACADVER
  1
AC1015
  9
$ACADMAINTVER
 70
     6
  9
$DWGCODEPAGE
  3
ANSI_1252
  9
$INSBASE
 10
0.0
 20
0.0
 30
0.0
  9
$EXTMIN
 10
-39.5
 20
-57.5
 30
0.0
  9
$EXTMAX
 10
39.5
 20
196.2072591575
 30
0.0
  9
$LIMMIN
 10
0.0
 20
0.0
  9
$LIMMAX
 10
420.0
 20
297.0
  9
$ORTHOMODE
 70
     0
  9
$REGENMODE
 70
     1
  9
$FILLMODE
 70
     1
  9
$QTEXTMODE
 70
     0
  9
$MIRRTEXT
 70
     1
  9
$LTSCALE
 40
1.0
  9
$ATTMODE
 70
     1
  9
$TEXTSIZE
 40
3.5
  9
$TRACEWID
 40
1.0
  9
$TEXTSTYLE
  7
Standard
  9
$CLAYER
  8
0
  9
$CELTYPE
  6
ByLayer
  9
$CECOLOR
 62
   256
  9
$CELTSCALE
 40
1.0
  9
$DISPSILH
 70
     0
  9
$DIMSCALE
 40
1.0
  9
$DIMASZ
 40
3.302
  9
$DIMEXO
 40
1.0
  9
$DIMDLI
 40
3.75
  9
$DIMRND
 40
0.0
  9
$DIMDLE
 40
0.0
  9
$DIMEXE
 40
1.0
  9
$DIMTP
 40
0.0
  9
$DIMTM
 40
0.0
  9
$DIMTXT
 40
3.5
  9
$DIMCEN
 40
2.5
  9
$DIMTSZ
 40
0.0
  9
$DIMTOL
 70
     0
  9
$DIMLIM
 70
     0
  9
$DIMTIH
 70
     1
  9
$DIMTOH
 70
     1
  9
$DIMSE1
 70
     0
  9
$DIMSE2
 70
     0
  9
$DIMTAD
 70
     1
  9
$DIMZIN
 70
     1
  9
$DIMBLK
  1

  9
$DIMASO
 70
     1
  9
$DIMSHO
 70
     1
  9
$DIMPOST
  1

  9
$DIMAPOST
  1

  9
$DIMALT
 70
     0
  9
$DIMALTD
 70
     3
  9
$DIMALTF
 40
0.0393700787
  9
$DIMLFAC
 40
1.0
  9
$DIMTOFL
 70
     1
  9
$DIMTVP
 40
0.0
  9
$DIMTIX
 70
     0
  9
$DIMSOXD
 70
     0
  9
$DIMSAH
 70
     0
  9
$DIMBLK1
  1

  9
$DIMBLK2
  1

  9
$DIMSTYLE
  2
ISO-25
  9
$DIMCLRD
 70
     0
  9
$DIMCLRE
 70
     0
  9
$DIMCLRT
 70
     0
  9
$DIMTFAC
 40
1.0
  9
$DIMGAP
 40
1.524
  9
$DIMJUST
 70
     0
  9
$DIMSD1
 70
     0
  9
$DIMSD2
 70
     0
  9
$DIMTOLJ
 70
     0
  9
$DIMTZIN
 70
     1
  9
$DIMALTZ
 70
     0
  9
$DIMALTTZ
 70
     0
  9
$DIMUPT
 70
     0
  9
$DIMDEC
 70
     2
  9
$DIMTDEC
 70
     2
  9
$DIMALTU
 70
     2
  9
$DIMALTTD
 70
     3
  9
$DIMTXSTY
  7
Standard
  9
$DIMAUNIT
 70
     0
  9
$DIMADEC
 70
     2
  9
$DIMALTRND
 40
0.0
  9
$DIMAZIN
 70
     0
  9
$DIMDSEP
 70
    44
  9
$DIMATFIT
 70
     3
  9
$DIMFRAC
 70
     0
  9
$DIMLDRBLK
  1

  9
$DIMLUNIT
 70
     2
  9
$DIMLWD
 70
    -2
  9
$DIMLWE
 70
    -2
  9
$DIMTMOVE
 70
     0
  9
$LUNITS
 70
     2
  9
$LUPREC
 70
     2
  9
$SKETCHINC
 40
1.0
  9
$FILLETRAD
 40
10.0
  9
$AUNITS
 70
     0
  9
$AUPREC
 70
     2
  9
$MENU
  1
.
  9
$ELEVATION
 40
0.0
  9
$PELEVATION
 40
0.0
  9
$THICKNESS
 40
0.0
  9
$LIMCHECK
 70
     0
  9
$CHAMFERA
 40
0.0
  9
$CHAMFERB
 40
0.0
  9
$CHAMFERC
 40
0.0
  9
$CHAMFERD
 40
0.0
  9
$SKPOLY
 70
     0
  9
$TDCREATE
 40
2459885.414590394
  9
$TDUCREATE
 40
2459885.414590394
  9
$TDUPDATE
 40
2459885.414639248
  9
$TDUUPDATE
 40
2459885.414639248
  9
$TDINDWG
 40
0.0000000116
  9
$TDUSRTIMER
 40
0.0000000116
  9
$USRTIMER
 70
     1
  9
$ANGBASE
 50
0.0
  9
$ANGDIR
 70
     0
  9
$PDMODE
 70
     0
  9
$PDSIZE
 40
-1.0
  9
$PLINEWID
 40
0.0
  9
$SPLFRAME
 70
     0
  9
$SPLINETYPE
 70
     6
  9
$SPLINESEGS
 70
     8
  9
$HANDSEED
  5
5EC
  9
$SURFTAB1
 70
     6
  9
$SURFTAB2
 70
     6
  9
$SURFTYPE
 70
     6
  9
$SURFU
 70
     6
  9
$SURFV
 70
     6
  9
$UCSBASE
  2

  9
$UCSNAME
  2

  9
$UCSORG
 10
0.0
 20
0.0
 30
0.0
  9
$UCSXDIR
 10
1.0
 20
0.0
 30
0.0
  9
$UCSYDIR
 10
0.0
 20
1.0
 30
0.0
  9
$UCSORTHOREF
  2

  9
$UCSORTHOVIEW
 70
     0
  9
$UCSORGTOP
 10
0.0
 20
0.0
 30
0.0
  9
$UCSORGBOTTOM
 10
0.0
 20
0.0
 30
0.0
  9
$UCSORGLEFT
 10
0.0
 20
0.0
 30
0.0
  9
$UCSORGRIGHT
 10
0.0
 20
0.0
 30
0.0
  9
$UCSORGFRONT
 10
0.0
 20
0.0
 30
0.0
  9
$UCSORGBACK
 10
0.0
 20
0.0
 30
0.0
  9
$PUCSBASE
  2

  9
$PUCSNAME
  2

  9
$PUCSORG
 10
0.0
 20
0.0
 30
0.0
  9
$PUCSXDIR
 10
1.0
 20
0.0
 30
0.0
  9
$PUCSYDIR
 10
0.0
 20
1.0
 30
0.0
  9
$PUCSORTHOREF
  2

  9
$PUCSORTHOVIEW
 70
     0
  9
$PUCSORGTOP
 10
0.0
 20
0.0
 30
0.0
  9
$PUCSORGBOTTOM
 10
0.0
 20
0.0
 30
0.0
  9
$PUCSORGLEFT
 10
0.0
 20
0.0
 30
0.0
  9
$PUCSORGRIGHT
 10
0.0
 20
0.0
 30
0.0
  9
$PUCSORGFRONT
 10
0.0
 20
0.0
 30
0.0
  9
$PUCSORGBACK
 10
0.0
 20
0.0
 30
0.0
  9
$USERI1
 70
     0
  9
$USERI2
 70
     0
  9
$USERI3
 70
     0
  9
$USERI4
 70
     0
  9
$USERI5
 70
     0
  9
$USERR1
 40
0.0
  9
$USERR2
 40
0.0
  9
$USERR3
 40
0.0
  9
$USERR4
 40
0.0
  9
$USERR5
 40
0.0
  9
$WORLDVIEW
 70
     1
  9
$SHADEDGE
 70
     3
  9
$SHADEDIF
 70
    70
  9
$TILEMODE
 70
     1
  9
$MAXACTVP
 70
    64
  9
$PINSBASE
 10
0.0
 20
0.0
 30
0.0
  9
$PLIMCHECK
 70
     0
  9
$PEXTMIN
 10
-57.5
 20
-2.0645260884
 30
0.0
  9
$PEXTMAX
 10
196.215568952
 20
69.8833795861
 30
0.0
  9
$PLIMMIN
 10
-77.2444022531
 20
-9.4686769333
  9
$PLIMMAX
 10
215.9599712051
 20
197.847546724
  9
$UNITMODE
 70
     0
  9
$VISRETAIN
 70
     1
  9
$PLINEGEN
 70
     0
  9
$PSLTSCALE
 70
     1
  9
$TREEDEPTH
 70
  3020
  9
$CMLSTYLE
  2
Standard
  9
$CMLJUST
 70
     0
  9
$CMLSCALE
 40
20.0
  9
$PROXYGRAPHICS
 70
     1
  9
$MEASUREMENT
 70
     1
  9
$CELWEIGHT
370
    -1
  9
$ENDCAPS
280
     0
  9
$JOINSTYLE
280
     0
  9
$LWDISPLAY
290
     1
  9
$INSUNITS
 70
     4
  9
$HYPERLINKBASE
  1

  9
$STYLESHEET
  1

  9
$XEDIT
290
     1
  9
$CEPSNTYPE
380
     0
  9
$PSTYLEMODE
290
     1
  9
$FINGERPRINTGUID
  2
{28dcee33-6d28-43ae-b363-b16efa1ae179}
  9
$VERSIONGUID
  2
{FAEB1C32-E019-11D5-929B-00C0DF256EC4}
  9
$EXTNAMES
290
     1
  9
$PSVPSCALE
 40
0.0
  9
$OLESTARTUP
290
     0
  0
ENDSEC
  0
SECTION
  2
CLASSES
  0
CLASS
  1
ACDBDICTIONARYWDFLT
  2
AcDbDictionaryWithDefault
  3
ObjectDBX Classes
 90
        0
280
     0
281
     0
  0
CLASS
  1
VISUALSTYLE
  2
AcDbVisualStyle
  3
ObjectDBX Classes
 90
     4095
280
     0
281
     0
  0
CLASS
  1
MATERIAL
  2
AcDbMaterial
  3
ObjectDBX Classes
 90
     1153
280
     0
281
     0
  0
CLASS
  1
SCALE
  2
AcDbScale
  3
ObjectDBX Classes
 90
     1153
280
     0
281
     0
  0
CLASS
  1
TABLESTYLE
  2
AcDbTableStyle
  3
ObjectDBX Classes
 90
     4095
280
     0
281
     0
  0
CLASS
  1
MLEADERSTYLE
  2
AcDbMLeaderStyle
  3
ACDB_MLEADERSTYLE_CLASS
 90
     4095
280
     0
281
     0
  0
CLASS
  1
SUN
  2
AcDbSun
  3
SCENEOE
 90
     1153
280
     0
281
     0
  0
CLASS
  1
ACDBPLACEHOLDER
  2
AcDbPlaceHolder
  3
ObjectDBX Classes
 90
        0
280
     0
281
     0
  0
CLASS
  1
LAYOUT
  2
AcDbLayout
  3
ObjectDBX Classes
 90
        0
280
     0
281
     0
  0
ENDSEC
  0
SECTION
  2
TABLES
  0
TABLE
  2
VPORT
  5
8
330
0
100
AcDbSymbolTable
 70
     1
  0
VPORT
  5
29
330
8
100
AcDbSymbolTableRecord
100
AcDbViewportTableRecord
  2
*Active
 70
     0
 10
0.0
 20
0.0
 11
1.0
 21
1.0
 12
0.0
 22
69.3536295787
 13
0.0
 23
0.0
 14
10.0
 24
10.0
 15
10.0
 25
10.0
 16
0.0
 26
0.0
 36
1.0
 17
0.0
 27
0.0
 37
0.0
 40
258.7814043406
 41
0.3113824975
 42
50.0
 43
0.0
 44
0.0
 50
0.0
 51
0.0
 71
     0
 72
   100
 73
     1
 74
     3
 75
     0
 76
     0
 77
     0
 78
     0
281
     0
 65
     1
110
0.0
120
0.0
130
0.0
111
1.0
121
0.0
131
0.0
112
0.0
122
1.0
132
0.0
 79
     0
146
0.0
  0
ENDTAB
  0
TABLE
  2
LTYPE
  5
5
330
0
100
AcDbSymbolTable
 70
     6
  0
LTYPE
  5
14
330
5
100
AcDbSymbolTableRecord
100
AcDbLinetypeTableRecord
  2
ByBlock
 70
     0
  3

 72
    65
 73
     0
 40
0.0
  0
LTYPE
  5
15
330
5
100
AcDbSymbolTableRecord
100
AcDbLinetypeTableRecord
  2
ByLayer
 70
     0
  3

 72
    65
 73
     0
 40
0.0
  0
LTYPE
  5
16
330
5
100
AcDbSymbolTableRecord
100
AcDbLinetypeTableRecord
  2
Continuous
 70
     0
  3
Solid line
 72
    65
 73
     0
 40
0.0
  0
LTYPE
  5
6E
330
5
100
AcDbSymbolTableRecord
100
AcDbLinetypeTableRecord
  2
HIDDEN
 70
     0
  3
Hidden __ __ __ __ __ __ __ __ __ __ __ __ __ __
 72
    65
 73
     2
 40
1.905
 49
1.27
 74
     0
 49
-0.635
 74
     0
  0
LTYPE
  5
6F
330
5
100
AcDbSymbolTableRecord
100
AcDbLinetypeTableRecord
  2
PHANTOM
 70
     0
  3
Phantom ______  __  __  ______  __  __  ______
 72
    65
 73
     6
 40
12.7
 49
6.35
 74
     0
 49
-1.27
 74
     0
 49
1.27
 74
     0
 49
-1.27
 74
     0
 49
1.27
 74
     0
 49
-1.27
 74
     0
  0
LTYPE
  5
70
330
5
100
AcDbSymbolTableRecord
100
AcDbLinetypeTableRecord
  2
CENTER
 70
     0
  3
Center ____ _ ____ _ ____ _ ____ _ ____ _ ____
 72
    65
 73
     4
 40
10.16
 49
6.35
 74
     0
 49
-1.27
 74
     0
 49
1.27
 74
     0
 49
-1.27
 74
     0
  0
LTYPE
  5
71
330
5
100
AcDbSymbolTableRecord
100
AcDbLinetypeTableRecord
  2
CENTERX2
 70
     0
  3
Center (2x) ________  __  ________  __  _____
 72
    65
 73
     4
 40
20.32
 49
12.7
 74
     0
 49
-2.54
 74
     0
 49
2.54
 74
     0
 49
-2.54
 74
     0
  0
LTYPE
  5
72
330
5
100
AcDbSymbolTableRecord
100
AcDbLinetypeTableRecord
  2
DOT2
 70
     0
  3
Dot (.5x) ........................................
 72
    65
 73
     2
 40
0.635
 49
0.0
 74
     0
 49
-0.635
 74
     0
  0
ENDTAB
  0
TABLE
  2
LAYER
  5
2
330
0
100
AcDbSymbolTable
 70
     1
  0
LAYER
  5
10
330
2
100
AcDbSymbolTableRecord
100
AcDbLayerTableRecord
  2
0
 70
     0
 62
     7
  6
Continuous
370
    -3
390
F
  0
ENDTAB
  0
TABLE
  2
STYLE
  5
3
330
0
100
AcDbSymbolTable
 70
     1
  0
STYLE
  5
11
330
3
100
AcDbSymbolTableRecord
100
AcDbTextStyleTableRecord
  2
Standard
 70
     0
 40
0.0
 41
1.0
 50
0.0
 71
     0
 42
3.5
  3
txt
  4

  0
ENDTAB
  0
TABLE
  2
VIEW
  5
6
330
0
100
AcDbSymbolTable
 70
     0
  0
ENDTAB
  0
TABLE
  2
UCS
  5
7
330
0
100
AcDbSymbolTable
 70
     0
  0
ENDTAB
  0
TABLE
  2
APPID
  5
9
330
0
100
AcDbSymbolTable
 70
     1
  0
APPID
  5
12
330
9
100
AcDbSymbolTableRecord
100
AcDbRegAppTableRecord
  2
ACAD
 70
     0
  0
ENDTAB
  0
TABLE
  2
DIMSTYLE
  5
A
330
0
100
AcDbSymbolTable
 70
     1
100
AcDbDimStyleTable
  0
DIMSTYLE
105
27
330
A
100
AcDbSymbolTableRecord
100
AcDbDimStyleTableRecord
  2
ISO-25
 70
     0
 41
2.5
 42
0.625
 43
3.75
 44
1.25
 73
     0
 74
     0
 77
     1
 78
     8
140
2.5
141
2.5
143
0.0393700787
147
0.625
171
     3
172
     1
178
     0
271
     2
272
     2
274
     3
278
    44
283
     0
284
     8
340
11
  0
ENDTAB
  0
TABLE
  2
BLOCK_RECORD
  5
1
330
0
100
AcDbSymbolTable
 70
     2
  0
BLOCK_RECORD
  5
1F
330
1
100
AcDbSymbolTableRecord
100
AcDbBlockTableRecord
  2
*Model_Space
340
22
  0
BLOCK_RECORD
  5
1B
330
1
100
AcDbSymbolTableRecord
100
AcDbBlockTableRecord
  2
*Paper_Space
340
1E
  0
BLOCK_RECORD
  5
23
330
1
100
AcDbSymbolTableRecord
100
AcDbBlockTableRecord
  2
*Paper_Space0
340
26
  0
BLOCK_RECORD
  5
5A1
330
1
100
AcDbSymbolTableRecord
100
AcDbBlockTableRecord
  2
*Paper_Space1
340
5A2
  0
ENDTAB
  0
ENDSEC
  0
SECTION
  2
BLOCKS
  0
BLOCK
  5
20
330
1F
100
AcDbEntity
  8
0
100
AcDbBlockBegin
  2
*Model_Space
 70
     0
 10
0.0
 20
0.0
 30
0.0
  3
*Model_Space
  1

  0
ENDBLK
  5
21
330
1F
100
AcDbEntity
  8
0
100
AcDbBlockEnd
  0
BLOCK
  5
1C
330
1B
100
AcDbEntity
 67
     1
  8
0
100
AcDbBlockBegin
  2
*Paper_Space
 70
     0
 10
0.0
 20
0.0
 30
0.0
  3
*Paper_Space
  1

  0
ENDBLK
  5
1D
330
1B
100
AcDbEntity
 67
     1
  8
0
100
AcDbBlockEnd
  0
BLOCK
  5
24
330
23
100
AcDbEntity
  8
0
100
AcDbBlockBegin
  2
*Paper_Space0
 70
     0
 10
0.0
 20
0.0
 30
0.0
  3
*Paper_Space0
  1

  0
SPLINE
  5
551
330
23
100
AcDbEntity
  8
0
  6
Continuous
 62
     7
370
    25
100
AcDbSpline
210
0.0
220
0.0
230
1.0
 70
     8
 71
     3
 72
    21
 73
    17
 74
     0
 42
0.000000001
 43
0.00000001
 40
0.0
 40
0.0
 40
0.0
 40
0.0
 40
0.0993806657647953
 40
0.1813003168725958
 40
0.2473424406321438
 40
0.3193334533556476
 40
0.3643492153562536
 40
0.4061483707910603
 40
0.4494338262540558
 40
0.4935526770490358
 40
0.5352954135416378
 40
0.6184382880931043
 40
0.7128288042411085
 40
0.7878326062643587
 40
0.8811616675465034
 40
1.0
 40
1.0
 40
1.0
 40
1.0
 10
-22.77544190012285
 20
-1.336217107149467
 30
0.0
 10
-22.14292188424675
 20
-1.37394252288367
 30
0.0
 10
-20.98901454800493
 20
-1.442765062701908
 30
0.0
 10
-19.43221821542586
 20
-1.537126249379267
 30
0.0
 10
-18.06231809055531
 20
-1.617723286946478
 30
0.0
 10
-16.93806617608009
 20
-1.68060539397721
 30
0.0
 10
-15.96767057128276
 20
-1.730952006685372
 30
0.0
 10
-15.1800341216763
 20
-1.768945674622598
 30
0.0
 10
-14.40536151142447
 20
-1.803053921865524
 30
0.0
 10
-13.64733029000563
 20
-1.832551133008967
 30
0.0
 10
-12.60058986178431
 20
-1.868023541894845
 30
0.0
 10
-11.18236736718567
 20
-1.901557516759859
 30
0.0
 10
-9.562829261676772
 20
-1.921070118599689
 30
0.0
 10
-7.947517432868499
 20
-1.935244778347014
 30
0.0
 10
-6.301392287464423
 20
-1.952120464774748
 30
0.0
 10
-5.161987995262832
 20
-1.966038190774247
 30
0.0
 10
-4.523789525217492
 20
-1.973833730513901
 30
0.0
  0
SPLINE
  5
552
330
23
100
AcDbEntity
  8
0
  6
Continuous
 62
     7
370
    25
100
AcDbSpline
210
0.0
220
0.0
230
1.0
 70
     8
 71
     3
 72
    26
 73
    22
 74
     0
 42
0.000000001
 43
0.00000001
 40
0.0
 40
0.0
 40
0.0
 40
0.0
 40
0.0771610194864498
 40
0.129268049356287
 40
0.1474711872465466
 40
0.1619375910121061
 40
0.16845397664529
 40
0.1749236290809104
 40
0.1953021109576137
 40
0.2196955583877002
 40
0.2671826061490394
 40
0.3185362862844025
 40
0.3735683065604063
 40
0.4955794900862445
 40
0.6197947134676975
 40
0.653357475814039
 40
0.6840531724381382
 40
0.7291625093705686
 40
0.7954018259528318
 40
0.8847677440778168
 40
1.0
 40
1.0
 40
1.0
 40
1.0
 10
4.52378951738257
 20
-1.973833730604262
 30
0.0
 10
4.753779585679626
 20
-1.970260268257324
 30
0.0
 10
5.139082523587293
 20
-1.964273637830312
 30
0.0
 10
5.668237215100208
 20
-1.952004799906582
 30
0.0
 10
6.078912235270444
 20
-1.945371153420215
 30
0.0
 10
6.317132628377407
 20
-1.942917067072895
 30
0.0
 10
6.499679521918506
 20
-1.941893675084211
 30
0.0
 10
6.723333635045707
 20
-1.941225235791839
 30
0.0
 10
7.026182630689753
 20
-1.94142566497343
 30
0.0
 10
7.637903605630127
 20
-1.93798823415833
 30
0.0
 10
8.461271993494986
 20
-1.931235032474277
 30
0.0
 10
9.476171341226692
 20
-1.92148190544646
 30
0.0
 10
10.99766125032306
 20
-1.903613989572881
 30
0.0
 10
12.99220661739406
 20
-1.860017887038042
 30
0.0
 10
14.79084202360309
 20
-1.78782521886919
 30
0.0
 10
16.00181862984316
 20
-1.728993416218467
 30
0.0
 10
16.69937892179892
 20
-1.692999553419672
 30
0.0
 10
17.60348778240698
 20
-1.643711952958725
 30
0.0
 10
18.89530833601275
 20
-1.56927846105822
 30
0.0
 10
20.66071494579082
 20
-1.462688507874069
 30
0.0
 10
22.01352331188818
 20
-1.381783704280125
 30
0.0
 10
22.77544193888366
 20
-1.33621710488847
 30
0.0
  0
SPLINE
  5
553
330
23
100
AcDbEntity
  8
0
  6
Continuous
 62
     7
370
    25
100
AcDbSpline
210
0.0
220
0.0
230
1.0
 70
     8
 71
     3
 72
    19
 73
    15
 74
     0
 42
0.000000001
 43
0.00000001
 40
0.0
 40
0.0
 40
0.0
 40
0.0
 40
0.1383502124693481
 40
0.2412313853151546
 40
0.3266773898423847
 40
0.4027469970765504
 40
0.4795555379247493
 40
0.5869336270658999
 40
0.6462910625958059
 40
0.7058331390069349
 40
0.765978446882099
 40
0.8319474056414004
 40
0.9095995085122632
 40
1.0
 40
1.0
 40
1.0
 40
1.0
 10
29.0168958975175
 20
16.0
 30
0.0
 10
28.27728849837042
 20
16.00715074443007
 30
0.0
 10
26.98768789493716
 20
16.01961898682818
 30
0.0
 10
25.24863759649594
 20
16.07625074321722
 30
0.0
 10
23.85043140435797
 20
16.14369003401337
 30
0.0
 10
22.60422828461087
 20
16.22510856834863
 30
0.0
 10
21.27592608807298
 20
16.33719312033925
 30
0.0
 10
20.10172242981924
 20
16.46667125088103
 30
0.0
 10
19.08439701368867
 20
16.6122505802402
 30
0.0
 10
18.36639881192341
 20
16.73487759210856
 30
0.0
 10
17.79622295105536
 20
16.84536427194967
 30
0.0
 10
17.38928431802075
 20
16.93050517653975
 30
0.0
 10
17.14467157854427
 20
16.98460324343989
 30
0.0
 10
17.12318883738575
 20
16.98904719448402
 30
0.0
 10
17.11163263162383
 20
16.99143772799568
 30
0.0
  0
SPLINE
  5
554
330
23
100
AcDbEntity
  8
0
  6
Continuous
 62
     7
370
    25
100
AcDbSpline
210
0.0
220
0.0
230
1.0
 70
     8
 71
     3
 72
    18
 73
    14
 74
     0
 42
0.000000001
 43
0.00000001
 40
0.0
 40
0.0
 40
0.0
 40
0.0
 40
0.0692038234554758
 40
0.132438831094659
 40
0.1947253483801541
 40
0.3177794117757357
 40
0.4453194163396438
 40
0.5704798836545982
 40
0.6688169454929314
 40
0.7164634243370538
 40
0.7862613481095679
 40
0.8802186766970731
 40
1.0
 40
1.0
 40
1.0
 40
1.0
 10
-17.0205337490413
 20
17.04043256023434
 30
0.0
 10
-17.03758934330631
 20
17.03792036350592
 30
0.0
 10
-17.07022949027069
 20
17.03311264651024
 30
0.0
 10
-17.36757402109363
 20
16.95257999645937
 30
0.0
 10
-18.0299155742867
 20
16.79605029693098
 30
0.0
 10
-19.16864062305044
 20
16.58924403869994
 30
0.0
 10
-20.83027102350409
 20
16.37751847961538
 30
0.0
 10
-22.49955505026609
 20
16.22927300115706
 30
0.0
 10
-23.82311503602215
 20
16.14616249055951
 30
0.0
 10
-24.88928893412005
 20
16.09346589630836
 30
0.0
 10
-25.93744508736449
 20
16.05279751107493
 30
0.0
 10
-27.34981537380848
 20
16.0146552385292
 30
0.0
 10
-28.41817580203249
 20
16.005263324523
 30
0.0
 10
-29.01689589652786
 20
16.0
 30
0.0
  0
SPLINE
  5
555
330
23
100
AcDbEntity
  8
0
  6
Continuous
 62
     7
370
    25
100
AcDbSpline
210
0.0
220
0.0
230
1.0
 70
     8
 71
     3
 72
    23
 73
    19
 74
     0
 42
0.000000001
 43
0.00000001
 40
0.0
 40
0.0
 40
0.0
 40
0.0
 40
0.04763070272824
 40
0.091908206788497
 40
0.1330467857093663
 40
0.1713137823419048
 40
0.2070415116351434
 40
0.2413718123568005
 40
0.312650347983949
 40
0.3879847726668026
 40
0.4676205256290943
 40
0.5302994022850515
 40
0.5955920321535375
 40
0.662314957937644
 40
0.7287630966426853
 40
0.8176157113259425
 40
0.9077056021488965
 40
1.0
 40
1.0
 40
1.0
 40
1.0
 10
-39.49999999999918
 20
-0.238232626276029
 30
0.0
 10
-38.43863911706416
 20
-0.3323436958470663
 30
0.0
 10
-36.39063709486894
 20
-0.5139404212317865
 30
0.0
 10
-33.26124532620974
 20
-0.7671273434179532
 30
0.0
 10
-30.23166059930374
 20
-0.9935588171235098
 30
0.0
 10
-27.29202288717436
 20
-1.193660647557458
 30
0.0
 10
-24.42071143491643
 20
-1.370184046337916
 30
0.0
 10
-20.57882352890762
 20
-1.580720688966739
 30
0.0
 10
-15.62873557640066
 20
-1.801972567407519
 30
0.0
 10
-9.387391263107284
 20
-1.991124110070765
 30
0.0
 10
-3.36532741255304
 20
-2.08070944787939
 30
0.0
 10
2.380273071101156
 20
-2.084497082257018
 30
0.0
 10
7.763169962670208
 20
-2.019482655562073
 30
0.0
 10
13.23696684550122
 20
-1.881339112311302
 30
0.0
 10
19.28968768213529
 20
-1.649027094800977
 30
0.0
 10
25.83542755151451
 20
-1.298860050091211
 30
0.0
 10
32.83623934480302
 20
-0.8167272272856692
 30
0.0
 10
37.26091918570105
 20
-0.4326117808283389
 30
0.0
 10
39.49999999999975
 20
-0.2382326262760324
 30
0.0
  0
LWPOLYLINE
  5
556
330
23
100
AcDbEntity
  8
0
  6
Continuous
 62
     7
370
    25
100
AcDbPolyline
 90
       25
 70
   128
 43
0.0
 10
10.0479362667
 20
58.0584531688
 10
10.1598545102
 20
59.4125919076
 10
10.0634671913
 20
60.7677713849
 10
9.7607505206
 20
62.096206614
 10
9.2579110406
 20
63.3706609403
 10
8.5652583733
 20
64.5650044694
 10
7.6969938444
 20
65.6547498033
 10
6.6709193163
 20
66.617554101
 10
5.5080721997
 20
67.4336771692
 10
4.2322941276
 20
68.0863861922
 10
2.8697421348
 20
68.562298801
 10
1.4483523655
 20
68.8516574501
 10
-0.0027326967
 20
68.9485294742
 10
-1.4537617308
 20
68.8509287246
 10
-2.874984565
 20
68.5608562909
 10
-4.2372621381
 20
68.0842594731
 10
-5.5126639324
 20
67.4309098448
 10
-6.6750406277
 20
66.6142029091
 10
-7.700560236
 20
65.6508834529
 10
-8.5681967241
 20
64.5607022314
 10
-9.2601611061
 20
63.3660110228
 10
-9.7622661683
 20
62.0913043534
 10
-10.064217346
 20
60.7627172912
 10
-10.1598237917
 20
59.4074896039
 10
-10.0471253048
 20
58.0534072667
  0
SPLINE
  5
557
330
23
100
AcDbEntity
  8
0
  6
Continuous
 62
     7
370
    25
100
AcDbSpline
210
0.0
220
0.0
230
1.0
 70
     8
 71
     3
 72
    30
 73
    26
 74
     0
 42
0.000000001
 43
0.00000001
 40
0.0
 40
0.0
 40
0.0
 40
0.0
 40
0.1249999999999993
 40
0.1249999999999993
 40
0.1874999999999997
 40
0.1874999999999997
 40
0.2500000000000001
 40
0.2500000000000001
 40
0.3750000000000006
 40
0.3750000000000006
 40
0.4375000000000008
 40
0.4375000000000008
 40
0.500000000000001
 40
0.500000000000001
 40
0.6250000000000012
 40
0.6250000000000012
 40
0.6875000000000012
 40
0.6875000000000012
 40
0.7500000000000011
 40
0.7500000000000011
 40
0.8750000000000006
 40
0.8750000000000006
 40
0.9375000000000002
 40
0.9375000000000002
 40
1.0
 40
1.0
 40
1.0
 40
1.0
 10
10.04793626671115
 20
58.05845316876769
 30
0.0
 10
9.928711039317772
 20
57.53241196703961
 30
0.0
 10
9.763020838707893
 20
57.01846027004741
 30
0.0
 10
9.443461305114791
 20
56.26601218850543
 30
0.0
 10
9.323992383838311
 20
56.01720926337412
 30
0.0
 10
9.062962845058316
 20
55.53250631806479
 30
0.0
 10
8.921870264327655
 20
55.29715978815685
 30
0.0
 10
8.467740298260466
 20
54.61155146298223
 30
0.0
 10
8.124082042331397
 20
54.18156772320805
 30
0.0
 10
7.546425804777535
 20
53.57776218611582
 30
0.0
 10
7.34234814160674
 20
53.38246916771981
 30
0.0
 10
6.918639605229797
 20
53.01149726379693
 30
0.0
 10
6.699366306915912
 20
52.83592062906547
 30
0.0
 10
6.019869502844966
 20
52.33814375047114
 30
0.0
 10
5.538486538820339
 20
52.04420539271107
 30
0.0
 10
4.770467015182748
 20
51.66466495411769
 30
0.0
 10
4.505530570933232
 20
51.54796226485755
 30
0.0
 10
3.970283683934378
 20
51.33976058335378
 30
0.0
 10
3.699163932633689
 20
51.24773161341688
 30
0.0
 10
2.875556158564597
 20
51.00703026418292
 30
0.0
 10
2.312905065619944
 20
50.89344840815298
 30
0.0
 10
1.447966520634052
 20
50.79545180791223
 30
0.0
 10
1.156174458298395
 20
50.77505743379523
 30
0.0
 10
0.5744607641766496
 20
50.75956630790262
 30
0.0
 10
0.283421985000476
 20
50.76430328746697
 30
0.0
 10
-0.0078006693101634
 20
50.7816561220102
 30
0.0
  0
LWPOLYLINE
  5
558
330
23
100
AcDbEntity
  8
0
  6
Continuous
 62
     7
370
    25
100
AcDbPolyline
 90
       38
 70
   128
 43
0.0
 10
0.0
 20
65.9984156695
 10
-1.1830057423
 20
65.9044147377
 10
-2.3319785632
 20
65.6251161777
 10
-3.4138646067
 20
65.1685549008
 10
-4.3975399811
 20
64.5478653435
 10
-5.2547061368
 20
63.7809036143
 10
-5.9607039641
 20
62.8897338059
 10
-6.4952231911
 20
61.8999932509
 10
-6.8428866726
 20
60.8401549832
 10
-6.9936927634
 20
59.7407086201
 10
-6.9433030468
 20
58.6332832317
 10
-6.6931671432
 20
57.5497374302
 10
-6.250481007
 20
56.5212428554
 10
-5.6279799126
 20
55.5773874237
 10
-4.8435720828
 20
54.7453241373
 10
-3.919823503
 20
54.0489899422
 10
-2.8833087377
 20
53.5084171052
 10
-1.7638464297
 20
53.1391569227
 10
-0.5936414713
 20
52.9518323379
 10
0.5936414713
 20
52.9518323379
 10
1.7638464297
 20
53.1391569227
 10
2.8833087377
 20
53.5084171052
 10
3.919823503
 20
54.0489899422
 10
4.8435720828
 20
54.7453241373
 10
5.6279799126
 20
55.5773874237
 10
6.250481007
 20
56.5212428554
 10
6.6931671432
 20
57.5497374302
 10
6.9433030468
 20
58.6332832317
 10
6.9936927634
 20
59.7407086201
 10
6.8428866726
 20
60.8401549832
 10
6.4952231911
 20
61.8999932509
 10
5.9607039641
 20
62.8897338059
 10
5.2547061368
 20
63.7809036143
 10
4.3975399811
 20
64.5478653435
 10
3.4138646067
 20
65.1685549008
 10
2.3319785632
 20
65.6251161777
 10
1.1830057423
 20
65.9044147377
 10
0.0
 20
65.9984156695
  0
SPLINE
  5
559
330
23
100
AcDbEntity
  8
0
  6
Continuous
 62
     7
370
    25
100
AcDbSpline
210
0.0
220
0.0
230
1.0
 70
     8
 71
     3
 72
    26
 73
    22
 74
     0
 42
0.000000001
 43
0.00000001
 40
0.0
 40
0.0
 40
0.0
 40
0.0
 40
0.1250000000000006
 40
0.1250000000000006
 40
0.1875000000000008
 40
0.1875000000000008
 40
0.250000000000001
 40
0.250000000000001
 40
0.375000000000001
 40
0.375000000000001
 40
0.4375000000000004
 40
0.4375000000000004
 40
0.4999999999999998
 40
0.4999999999999998
 40
0.625
 40
0.625
 40
0.75
 40
0.75
 40
0.8750000000000001
 40
0.8750000000000001
 40
1.0
 40
1.0
 40
1.0
 40
1.0
 10
-0.0078006693107376
 20
50.78165612201025
 30
0.0
 10
-0.5891301745807598
 20
50.74787894929456
 30
0.0
 10
-1.16483001110026
 20
50.76425025223539
 30
0.0
 10
-2.020275341152603
 20
50.86100053880415
 30
0.0
 10
-2.304064309965978
 20
50.90536068533712
 30
0.0
 10
-2.868876902663365
 20
51.01871436963833
 30
0.0
 10
-3.151319459448142
 20
51.08817122862656
 30
0.0
 10
-3.980922748214266
 20
51.33086304745535
 30
0.0
 10
-4.511437062719041
 20
51.53767739756051
 30
0.0
 10
-5.274175476635353
 20
51.91383427270692
 30
0.0
 10
-5.52284623817585
 20
52.05034857976062
 30
0.0
 10
-6.008975758075873
 20
52.34575681604203
 30
0.0
 10
-6.246164657821248
 20
52.50429434157871
 30
0.0
 10
-6.927697701115478
 20
53.00355510750234
 30
0.0
 10
-7.346968620496177
 20
53.37049232236142
 30
0.0
 10
-8.115791175342778
 20
54.17212321656763
 30
0.0
 10
-8.46701659451523
 20
54.61062741957205
 30
0.0
 10
-9.073003208853015
 20
55.52511072506888
 30
0.0
 10
-9.331286833378263
 20
56.00378951098386
 30
0.0
 10
-9.758109300897946
 20
57.00417737779553
 30
0.0
 10
-9.92762348123194
 20
57.52776568013028
 30
0.0
 10
-10.04712530477361
 20
58.05340726674945
 30
0.0
  0
SPLINE
  5
55B
330
23
100
AcDbEntity
  8
0
  6
Continuous
 62
     7
370
    25
100
AcDbSpline
210
0.0
220
0.0
230
1.0
 70
     8
 71
     3
 72
    13
 73
     9
 74
     0
 42
0.000000001
 43
0.00000001
 40
0.0
 40
0.0
 40
0.0
 40
0.0
 40
0.1665761471640403
 40
0.3342990934276378
 40
0.499914533118708
 40
0.6678687247058381
 40
0.8338052785609091
 40
1.0
 40
1.0
 40
1.0
 40
1.0
 10
0.0171170211944113
 20
46.6465558745798
 30
0.0
 10
0.9022193222817474
 20
46.72150761643653
 30
0.0
 10
2.6785174410804
 20
46.87192710794302
 30
0.0
 10
5.15148328066529
 20
47.90469755116227
 30
0.0
 10
7.282853093918039
 20
49.45650129559531
 30
0.0
 10
8.898739749449557
 20
51.4788503900403
 30
0.0
 10
9.960118533284492
 20
53.82318453518948
 30
0.0
 10
10.09186746990334
 20
55.49321484094017
 30
0.0
 10
10.15779314282249
 20
56.3288790559806
 30
0.0
  0
SPLINE
  5
55C
330
23
100
AcDbEntity
  8
0
  6
Continuous
 62
     7
370
    25
100
AcDbSpline
210
0.0
220
0.0
230
1.0
 70
     8
 71
     3
 72
    20
 73
    16
 74
     0
 42
0.000000001
 43
0.00000001
 40
0.0
 40
0.0
 40
0.0
 40
0.0
 40
0.0005332443687894
 40
0.0840752270577932
 40
0.1669550192524088
 40
0.2508425544190962
 40
0.3335619607640305
 40
0.4173339965792163
 40
0.5005332443687902
 40
0.5837324921583604
 40
0.6675045279735473
 40
0.7502239343184824
 40
0.834111469485169
 40
0.9169912616797847
 40
1.0
 40
1.0
 40
1.0
 40
1.0
 10
-10.1577931428225
 20
56.72254700180995
 30
0.0
 10
-10.15852824711799
 20
56.71738039662081
 30
0.0
 10
-10.27443019409136
 20
55.90277544283362
 30
0.0
 10
-9.869035752615721
 20
54.25361021414972
 30
0.0
 10
-8.904269507059228
 20
51.97599667504015
 30
0.0
 10
-7.252313584312428
 20
50.02800677197381
 30
0.0
 10
-5.123144111898247
 20
48.536680019795
 30
0.0
 10
-2.644579670916055
 20
47.61615689062998
 30
0.0
 10
0.0171961608939931
 20
47.32636505587165
 30
0.0
 10
2.678496064826468
 20
47.68967039231763
 30
0.0
 10
5.151488942087711
 20
48.68533809207979
 30
0.0
 10
7.282851561225612
 20
50.24701403834005
 30
0.0
 10
8.898740155054917
 20
52.26670328270446
 30
0.0
 10
9.960118432211063
 20
54.61173272329358
 30
0.0
 10
10.09186743619474
 20
56.28167058692655
 30
0.0
 10
10.15779314282249
 20
57.11728854498023
 30
0.0
  0
SPLINE
  5
55D
330
23
100
AcDbEntity
  8
0
  6
Continuous
 62
     7
370
    25
100
AcDbSpline
210
0.0
220
0.0
230
1.0
 70
     8
 71
     3
 72
    20
 73
    16
 74
     0
 42
0.000000001
 43
0.00000001
 40
0.0
 40
0.0
 40
0.0
 40
0.0
 40
0.0005332443687892
 40
0.0840752270577929
 40
0.1669550192524084
 40
0.2508425544190957
 40
0.3335619607640299
 40
0.4173339965792157
 40
0.5005332443687895
 40
0.5837324921583597
 40
0.6675045279735463
 40
0.7502239343184813
 40
0.8341114694851678
 40
0.9169912616797835
 40
1.0
 40
1.0
 40
1.0
 40
1.0
 10
-10.1577931428225
 20
57.5109564908096
 30
0.0
 10
-10.158528247118
 20
57.50578988562045
 30
0.0
 10
-10.27443019409155
 20
56.69118493183415
 30
0.0
 10
-9.86903575261563
 20
55.04201970314897
 30
0.0
 10
-8.904269507059254
 20
52.76440616403993
 30
0.0
 10
-7.252313584312424
 20
50.81641626097343
 30
0.0
 10
-5.123144111898251
 20
49.32508950879468
 30
0.0
 10
-2.644579670916053
 20
48.40456637962962
 30
0.0
 10
0.0171961608939914
 20
48.11477454487131
 30
0.0
 10
2.678496064826465
 20
48.47807988131728
 30
0.0
 10
5.151488942087716
 20
49.47374758107944
 30
0.0
 10
7.28285156122561
 20
51.0354235273397
 30
0.0
 10
8.898740155054917
 20
53.05511277170408
 30
0.0
 10
9.960118432211067
 20
55.40014221229323
 30
0.0
 10
10.09186743619474
 20
57.07008007592623
 30
0.0
 10
10.1577931428225
 20
57.90569803397992
 30
0.0
  0
SPLINE
  5
55E
330
23
100
AcDbEntity
  8
0
  6
Continuous
 62
     7
370
    25
100
AcDbSpline
210
0.0
220
0.0
230
1.0
 70
     8
 71
     3
 72
    20
 73
    16
 74
     0
 42
0.000000001
 43
0.00000001
 40
0.0
 40
0.0
 40
0.0
 40
0.0
 40
0.0108118960863129
 40
0.0934947216907877
 40
0.1755221668577613
 40
0.2585469912313564
 40
0.3404156999784872
 40
0.423326212811582
 40
0.5056698282488332
 40
0.5880134436860808
 40
0.6709239565191766
 40
0.7527926652663082
 40
0.8358174896399024
 40
0.9178449348068762
 40
1.0
 40
1.0
 40
1.0
 40
1.0
 10
-10.11507047562494
 20
58.60141360048537
 30
0.0
 10
-10.1316184554604
 20
58.49564246169311
 30
0.0
 10
-10.27471535140818
 20
57.58099778648022
 30
0.0
 10
-9.879508916272956
 20
55.83094890153217
 30
0.0
 10
-8.901433550871102
 20
53.55267492449847
 30
0.0
 10
-7.253065220885555
 20
51.60486304840483
 30
0.0
 10
-5.122941021024601
 20
50.11348891982395
 30
0.0
 10
-2.644633962629081
 20
49.19297856274478
 30
0.0
 10
0.0172106631979776
 20
48.9031833142237
 30
0.0
 10
2.678492147640352
 20
49.2664895646993
 30
0.0
 10
5.151489979540083
 20
50.26215701859763
 30
0.0
 10
7.282851280360613
 20
51.82383303027672
 30
0.0
 10
8.898740229381865
 20
53.84352225701541
 30
0.0
 10
9.960118413689417
 20
56.18855170221199
 30
0.0
 10
10.09186743001766
 20
57.8584895652324
 30
0.0
 10
10.1577931428225
 20
58.69410752297956
 30
0.0
  0
SPLINE
  5
55F
330
23
100
AcDbEntity
  8
0
  6
Continuous
 62
     7
370
    25
100
AcDbSpline
210
0.0
220
0.0
230
1.0
 70
     8
 71
     3
 72
    20
 73
    16
 74
     0
 42
0.000000001
 43
0.00000001
 40
0.0
 40
0.0
 40
0.0
 40
0.0
 40
0.0005596838049167
 40
0.0882438629138226
 40
0.1752330186578857
 40
0.2632798835011907
 40
0.3501007011101351
 40
0.4380263398884362
 40
0.525350790542963
 40
0.6126752411974858
 40
0.7006008799757878
 40
0.7874216975847331
 40
0.8754685624280374
 40
0.9624577181721007
 40
0.9999999999999999
 40
0.9999999999999999
 40
0.9999999999999999
 40
0.9999999999999999
 10
-10.1577931428225
 20
59.08777546880888
 30
0.0
 10
-10.15852824711782
 20
59.08260886361974
 30
0.0
 10
-10.27443019406395
 20
58.26800390983353
 30
0.0
 10
-9.869035778323903
 20
56.61883868048323
 30
0.0
 10
-8.904269417298897
 20
54.34122514436213
 30
0.0
 10
-7.252313920330031
 20
52.39323523027663
 30
0.0
 10
-5.123142871542294
 20
50.90190851889433
 30
0.0
 10
-2.644584353993886
 20
49.98138523643102
 30
0.0
 10
0.0172134986420932
 20
49.69159397157098
 30
0.0
 10
2.678431158187274
 20
50.05489717953473
 30
0.0
 10
5.15173174057552
 20
51.05057284269615
 30
0.0
 10
7.281952967311341
 20
52.6122192497561
 30
0.0
 10
8.902130587429633
 20
54.63201949398918
 30
0.0
 10
9.749896720488737
 20
56.53320215759664
 30
0.0
 10
9.978899258850966
 20
57.70514849030595
 30
0.0
 10
10.04793626671118
 20
58.05845316876773
 30
0.0
  0
LWPOLYLINE
  5
561
330
23
100
AcDbEntity
  8
0
  6
Continuous
 62
     7
370
    25
100
AcDbPolyline
 90
       23
 70
   128
 43
0.0
 10
-10.16
 20
55.8796731886
 10
-10.0565858495
 20
54.5297917389
 10
-9.7484486119
 20
53.2073899828
 10
-9.2418610728
 20
51.9393882065
 10
-8.5471358936
 20
50.7515992696
 10
-7.6784156754
 20
49.6682031296
 10
-6.6533850569
 20
48.7112546075
 10
-5.4929107053
 20
47.9002344158
 10
-4.2206165321
 20
47.2516525866
 10
-2.8624027775
 20
46.7787123758
 10
-1.4459187569
 20
46.4910414821
 10
0.0
 20
46.3944960554
 10
1.4459187569
 20
46.4910414821
 10
2.8624027775
 20
46.7787123758
 10
4.2206165321
 20
47.2516525866
 10
5.4929107053
 20
47.9002344158
 10
6.6533850569
 20
48.7112546075
 10
7.6784156754
 20
49.6682031296
 10
8.5471358936
 20
50.7515992696
 10
9.2418610728
 20
51.9393882065
 10
9.7484486119
 20
53.2073899828
 10
10.0565858495
 20
54.5297917389
 10
10.16
 20
55.8796731886
  0
SPLINE
  5
563
330
23
100
AcDbEntity
  8
0
  6
Continuous
 62
     7
370
    25
100
AcDbSpline
210
0.0
220
0.0
230
1.0
 70
     8
 71
     3
 72
    21
 73
    17
 74
     0
 42
0.000000001
 43
0.00000001
 40
0.0
 40
0.0
 40
0.0
 40
0.0
 40
0.0005328868518664
 40
0.0840506580272341
 40
0.166906430619318
 40
0.2507696541269298
 40
0.3334650873511634
 40
0.4172128449804349
 40
0.5003879805852381
 40
0.5835631161900421
 40
0.6673108738193139
 40
0.7500063070435469
 40
0.81792931018054
 40
0.8854569201543122
 40
0.9524295541592581
 40
1.0
 40
1.0
 40
1.0
 40
1.0
 10
10.15779397778828
 20
59.04991586659834
 30
0.0
 10
10.15852880416473
 20
59.04461044462222
 30
0.0
 10
10.27443078271768
 20
58.2078020177604
 30
0.0
 10
9.869037303922116
 20
56.51402936277483
 30
0.0
 10
8.90427264711452
 20
54.17260367131363
 30
0.0
 10
7.252319094209858
 20
52.15659258104125
 30
0.0
 10
5.12314666042196
 20
50.60200370074541
 30
0.0
 10
2.644598008864381
 20
49.61402399481138
 30
0.0
 10
-0.0172338824511505
 20
49.25909422129148
 30
0.0
 10
-2.678323807538827
 20
49.55733619284371
 30
0.0
 10
-5.152103801849766
 20
50.48532300269385
 30
0.0
 10
-7.145004727189326
 20
51.88907901543175
 30
0.0
 10
-8.609254235334436
 20
53.55532689977944
 30
0.0
 10
-9.574844607945963
 20
55.33416788379164
 30
0.0
 10
-10.08449641175278
 20
57.07036360813616
 30
0.0
 10
-10.13694569518527
 20
58.19076147519451
 30
0.0
 10
-10.15872820531396
 20
58.6560696031651
 30
0.0
  0
SPLINE
  5
564
330
23
100
AcDbEntity
  8
0
  6
Continuous
 62
     7
370
    25
100
AcDbSpline
210
0.0
220
0.0
230
1.0
 70
     8
 71
     3
 72
    20
 73
    16
 74
     0
 42
0.000000001
 43
0.00000001
 40
0.0
 40
0.0
 40
0.0
 40
0.0
 40
0.0217344356018521
 40
0.1102272653077656
 40
0.1997960874221235
 40
0.2881176691397504
 40
0.3775631697040323
 40
0.4663970901488866
 40
0.5552310105937417
 40
0.6446765111580237
 40
0.73299809287565
 40
0.8055422085319975
 40
0.8776640306200738
 40
0.9491931191862267
 40
1.0
 40
1.0
 40
1.0
 40
1.0
 10
9.893478611695686
 20
56.35964296695578
 30
0.0
 10
9.869688022874929
 20
56.15615609922147
 30
0.0
 10
9.749032874804263
 20
55.12416238347548
 30
0.0
 10
8.855023413429516
 20
53.38834279675921
 30
0.0
 10
7.265372020024516
 20
51.36708355094145
 30
0.0
 10
5.119619782285437
 20
49.81389130586254
 30
0.0
 10
2.645540841757097
 20
48.82553508426819
 30
0.0
 10
-0.0174857393700385
 20
48.47070594799762
 30
0.0
 10
-2.678255744921098
 20
48.768920970444
 30
0.0
 10
-5.152121955681943
 20
49.69691504292105
 30
0.0
 10
-7.14500084015926
 20
51.10066919899982
 30
0.0
 10
-8.609255183655899
 20
52.76691749066369
 30
0.0
 10
-9.574844355128377
 20
54.54575837349537
 30
0.0
 10
-10.08449645396117
 20
56.28195412269201
 30
0.0
 10
-10.13694570757085
 20
57.40235198723819
 30
0.0
 10
-10.15872820531396
 20
57.86766011416545
 30
0.0
  0
SPLINE
  5
565
330
23
100
AcDbEntity
  8
0
  6
Continuous
 62
     7
370
    25
100
AcDbSpline
210
0.0
220
0.0
230
1.0
 70
     8
 71
     3
 72
    20
 73
    16
 74
     0
 42
0.000000001
 43
0.00000001
 40
0.0
 40
0.0
 40
0.0
 40
0.0
 40
0.0217344356018521
 40
0.1102272653077657
 40
0.1997960874221237
 40
0.2881176691397507
 40
0.3775631697040326
 40
0.466397090148887
 40
0.5552310105937421
 40
0.6446765111580243
 40
0.7329980928756507
 40
0.8055422085319982
 40
0.8776640306200745
 40
0.949193119186227
 40
1.0
 40
1.0
 40
1.0
 40
1.0
 10
9.893478611695684
 20
55.57123347795612
 30
0.0
 10
9.869688022874927
 20
55.36774661022181
 30
0.0
 10
9.749032874804268
 20
54.33575289447587
 30
0.0
 10
8.855023413429514
 20
52.59993330775958
 30
0.0
 10
7.265372020024518
 20
50.57867406194184
 30
0.0
 10
5.119619782285437
 20
49.02548181686288
 30
0.0
 10
2.645540841757098
 20
48.03712559526855
 30
0.0
 10
-0.0174857393700385
 20
47.68229645899797
 30
0.0
 10
-2.678255744921098
 20
47.98051148144434
 30
0.0
 10
-5.152121955681943
 20
48.90850555392142
 30
0.0
 10
-7.14500084015926
 20
50.31225971000017
 30
0.0
 10
-8.609255183655899
 20
51.97850800166405
 30
0.0
 10
-9.574844355128374
 20
53.75734888449573
 30
0.0
 10
-10.08449645396117
 20
55.49354463369234
 30
0.0
 10
-10.13694570757085
 20
56.61394249823853
 30
0.0
 10
-10.15872820531396
 20
57.07925062516578
 30
0.0
  0
SPLINE
  5
566
330
23
100
AcDbEntity
  8
0
  6
Continuous
 62
     7
370
    25
100
AcDbSpline
210
0.0
220
0.0
230
1.0
 70
     8
 71
     3
 72
    13
 73
     9
 74
     0
 42
0.000000001
 43
0.00000001
 40
0.0
 40
0.0
 40
0.0
 40
0.0
 40
0.0466007101264582
 40
0.2363378066372111
 40
0.4283819338545682
 40
0.6177518582883426
 40
0.8095315722992693
 40
0.9999999999999999
 40
0.9999999999999999
 40
0.9999999999999999
 40
0.9999999999999999
 10
9.893478611695684
 20
54.78282398895647
 30
0.0
 10
9.869688006731787
 20
54.57933244946053
 30
0.0
 10
9.749032776790399
 20
53.54731504064445
 30
0.0
 10
8.855025424834102
 20
51.81210591139294
 30
0.0
 10
7.265364729497191
 20
49.78815472280656
 30
0.0
 10
5.119646631774487
 20
48.24484246513461
 30
0.0
 10
2.645439486318724
 20
47.21938423824451
 30
0.0
 10
0.8683741095185313
 20
47.07461484597448
 30
0.0
 10
-0.0171105045462805
 20
47.00247846252105
 30
0.0
  0
SPLINE
  5
572
330
23
100
AcDbEntity
  8
0
  6
Continuous
 62
     7
370
    25
100
AcDbSpline
210
0.0
220
0.0
230
1.0
 70
     8
 71
     3
 72
    14
 73
    10
 74
     0
 42
0.000000001
 43
0.00000001
 40
0.0
 40
0.0
 40
0.0
 40
0.0
 40
0.2051292197169669
 40
0.2051292197169669
 40
0.4038469147877243
 40
0.5032057623231037
 40
0.6025646098584829
 40
0.7499999999999998
 40
1.0
 40
1.0
 40
1.0
 40
1.0
 10
15.00000000000001
 20
7.773928055880164
 30
0.0
 10
15.0
 20
6.386055268280361
 30
0.0
 10
15.00000000002929
 20
5.141909485766146
 30
0.0
 10
14.99999999996859
 20
3.005027816797151
 30
0.0
 10
15.44986136724214
 20
1.67463730974237
 30
0.0
 10
17.08737727254672
 20
0.4821668248984855
 30
0.0
 10
19.13662127965637
 20
-0.2509256650580147
 30
0.0
 10
23.02366020153809
 20
-0.8047156978209201
 30
0.0
 10
26.9571262411644
 20
-0.8756934638885321
 30
0.0
 10
29.50000002575555
 20
-0.8857388984751524
 30
0.0
  0
LWPOLYLINE
  5
573
330
23
100
AcDbEntity
  8
0
  6
Continuous
 62
     7
370
    25
100
AcDbPolyline
 90
        3
 70
   128
 43
0.0
 10
-29.4999999847
 20
-0.8857387538
 10
-22.1342025009
 20
-1.3730977442
 10
-22.0581978152
 20
-1.3773991079
  0
LWPOLYLINE
  5
574
330
23
100
AcDbEntity
  8
0
  6
Continuous
 62
     7
370
    25
100
AcDbPolyline
 90
        3
 70
   128
 43
0.0
 10
-4.524965466
 20
-1.9738200443
 10
0.000000015
 20
-2.0
 10
5.6053217031
 20
-1.959825801
  0
LWPOLYLINE
  5
575
330
23
100
AcDbEntity
  8
0
  6
Continuous
 62
     7
370
    25
100
AcDbPolyline
 90
        3
 70
   128
 43
0.0
 10
22.0075471781
 20
-1.3802573582
 10
22.1342025308
 20
-1.3730977425
 10
29.5000000146
 20
-0.8857387515
  0
SPLINE
  5
576
330
23
100
AcDbEntity
  8
0
  6
Continuous
 62
     7
370
    25
100
AcDbSpline
210
0.0
220
0.0
230
1.0
 70
     8
 71
     3
 72
    14
 73
    10
 74
     0
 42
0.000000001
 43
0.00000001
 40
0.0
 40
0.0
 40
0.0
 40
0.0
 40
0.2051292197169669
 40
0.2051292197169669
 40
0.4038469147877243
 40
0.5032057623231037
 40
0.6025646098584829
 40
0.7499999999999998
 40
1.0
 40
1.0
 40
1.0
 40
1.0
 10
-15.0
 20
7.773928055880153
 30
0.0
 10
-15.0
 20
6.386055268280344
 30
0.0
 10
-15.00000000002929
 20
5.141909485766132
 30
0.0
 10
-14.99999999996859
 20
3.005027816797162
 30
0.0
 10
-15.44986136724218
 20
1.674637309742301
 30
0.0
 10
-17.08737727254684
 20
0.4821668248984161
 30
0.0
 10
-19.13662127965664
 20
-0.2509256650580806
 30
0.0
 10
-23.02366020153867
 20
-0.8047156978209548
 30
0.0
 10
-26.9571262411643
 20
-0.8756934638885321
 30
0.0
 10
-29.49999999583279
 20
-0.8857389007388417
 30
0.0
  0
SPLINE
  5
578
330
23
100
AcDbEntity
  8
0
  6
Continuous
 62
     7
370
    25
100
AcDbSpline
210
0.0
220
0.0
230
1.0
 70
     8
 71
     3
 72
    14
 73
    10
 74
     0
 42
0.000000001
 43
0.00000001
 40
0.0
 40
0.0
 40
0.0
 40
0.0
 40
0.2051292197169669
 40
0.2051292197169669
 40
0.4038469147877243
 40
0.5032057623231037
 40
0.6025646098584829
 40
0.7499999999999998
 40
1.0
 40
1.0
 40
1.0
 40
1.0
 10
-15.0
 20
20.844054026841
 30
0.0
 10
-14.99999999930474
 20
19.8501302276192
 30
0.0
 10
-15.17602652343221
 20
19.01038706658981
 30
0.0
 10
-15.99922595591979
 20
17.66469439054258
 30
0.0
 10
-16.93640445397438
 20
16.92838524031513
 30
0.0
 10
-18.87660133157756
 20
16.37183741438501
 30
0.0
 10
-20.89794101572718
 20
16.097034182616
 30
0.0
 10
-24.30132794100184
 20
15.96307973269221
 30
0.0
 10
-27.46738747638564
 20
15.99775928116124
 30
0.0
 10
-29.5
 20
16.0
 30
0.0
  0
SPLINE
  5
579
330
23
100
AcDbEntity
  8
0
  6
Continuous
 62
     7
370
    25
100
AcDbSpline
210
0.0
220
0.0
230
1.0
 70
     8
 71
     3
 72
    14
 73
    10
 74
     0
 42
0.000000001
 43
0.00000001
 40
0.0
 40
0.0
 40
0.0
 40
0.0
 40
0.2051292197169669
 40
0.2051292197169669
 40
0.4038469147877243
 40
0.5032057623231037
 40
0.6025646098584829
 40
0.7499999999999998
 40
1.0
 40
1.0
 40
1.0
 40
1.0
 10
14.99999999999999
 20
20.84405402684102
 30
0.0
 10
15.00000000000001
 20
19.85013022648153
 30
0.0
 10
15.17602652455409
 20
19.01038706464732
 30
0.0
 10
15.99922595908577
 20
17.66469438782064
 30
0.0
 10
16.9364044595512
 20
16.9283852376077
 30
0.0
 10
18.87660134157818
 20
16.37183741250664
 30
0.0
 10
20.89794103000059
 20
16.09703418154689
 30
0.0
 10
24.30132796233184
 20
15.96307973268035
 30
0.0
 10
27.46738750218969
 20
15.9977592812562
 30
0.0
 10
29.49999999999999
 20
16.0
 30
0.0
  0
SPLINE
  5
57C
330
23
100
AcDbEntity
  8
0
  6
Continuous
 62
     7
370
    25
100
AcDbSpline
210
0.0
220
0.0
230
1.0
 70
     8
 71
     3
 72
    27
 73
    23
 74
     0
 42
0.000000001
 43
0.00000001
 40
0.0
 40
0.0
 40
0.0
 40
0.0
 40
0.1250000000000023
 40
0.1250000000000023
 40
0.1875000000000028
 40
0.1875000000000028
 40
0.2500000000000033
 40
0.2500000000000033
 40
0.3750000000000032
 40
0.3750000000000032
 40
0.500000000000003
 40
0.500000000000003
 40
0.6250000000000028
 40
0.6250000000000028
 40
0.6875000000000022
 40
0.6875000000000022
 40
0.7500000000000018
 40
0.8125000000000012
 40
0.8125000000000012
 40
0.8750000000000008
 40
0.8750000000000008
 40
1.0
 40
1.0
 40
1.0
 40
1.0
 10
-29.50000000662685
 20
-0.8857390434212145
 30
0.0
 10
-30.15940794472959
 20
-0.8358541351636342
 30
0.0
 10
-30.80778287781285
 20
-0.7859016215770488
 30
0.0
 10
-31.76449368668554
 20
-0.7110921157086093
 30
0.0
 10
-32.08073590274916
 20
-0.686177615184521
 30
0.0
 10
-32.7077823240757
 20
-0.6364578264754471
 30
0.0
 10
-33.01954325224435
 20
-0.6115743634335993
 30
0.0
 10
-33.92666913479466
 20
-0.5387992918420292
 30
0.0
 10
-34.50042352331477
 20
-0.4922664501668603
 30
0.0
 10
-35.58653749846023
 20
-0.4038836249193739
 30
0.0
 10
-36.10130088794014
 20
-0.361838665704009
 30
0.0
 10
-37.0244775697993
 20
-0.2869242257041577
 30
0.0
 10
-37.43885664193535
 20
-0.2535662463793893
 30
0.0
 10
-37.98794600151744
 20
-0.2104004237454896
 30
0.0
 10
-38.15872979930098
 20
-0.1971739801149459
 30
0.0
 10
-38.46824525590888
 20
-0.1737066345472299
 30
0.0
 10
-38.74789729813015
 20
-0.1530509378633721
 30
0.0
 10
-38.96876062008027
 20
-0.1380571223003266
 30
0.0
 10
-39.15984546727314
 20
-0.1259782667306954
 30
0.0
 10
-39.240744605621
 20
-0.1213855785683962
 30
0.0
 10
-39.43503556620853
 20
-0.112290981793748
 30
0.0
 10
-39.49999999999967
 20
-0.1124321312711493
 30
0.0
 10
-39.49999999999971
 20
-0.1188032358279238
 30
0.0
  0
SPLINE
  5
57E
330
23
100
AcDbEntity
  8
0
  6
Continuous
 62
     7
370
    25
100
AcDbSpline
210
0.0
220
0.0
230
1.0
 70
     8
 71
     3
 72
    26
 73
    22
 74
     0
 42
0.000000001
 43
0.00000001
 40
0.0
 40
0.0
 40
0.0
 40
0.0
 40
0.124999999999999
 40
0.124999999999999
 40
0.1874999999999993
 40
0.1874999999999993
 40
0.2499999999999996
 40
0.2499999999999996
 40
0.3749999999999997
 40
0.3749999999999997
 40
0.4999999999999998
 40
0.4999999999999998
 40
0.6249999999999999
 40
0.6249999999999999
 40
0.6875000000000002
 40
0.6875000000000002
 40
0.7500000000000007
 40
0.7500000000000007
 40
0.8750000000000003
 40
0.8750000000000003
 40
1.0
 40
1.0
 40
1.0
 40
1.0
 10
-39.50000000000001
 20
14.49626872598211
 30
0.0
 10
-39.5
 20
14.56199127087931
 30
0.0
 10
-39.43520274577163
 20
14.6331175787159
 30
0.0
 10
-39.24533765034992
 20
14.74705919099046
 30
0.0
 10
-39.16648783639431
 20
14.78624750232134
 30
0.0
 10
-38.97704200582501
 20
14.86687652988793
 30
0.0
 10
-38.86586387979557
 20
14.90847081413136
 30
0.0
 10
-38.49127356788588
 20
15.03360616718916
 30
0.0
 10
-38.18582411488389
 20
15.11826863757536
 30
0.0
 10
-37.4645904702333
 20
15.28703907302453
 30
0.0
 10
-37.04459274331645
 20
15.37167526049339
 30
0.0
 10
-36.12607085555094
 20
15.52969162654831
 30
0.0
 10
-35.6247278518479
 20
15.60393488092462
 30
0.0
 10
-34.80770575702629
 20
15.70514331541692
 30
0.0
 10
-34.52372152311728
 20
15.73721364554893
 30
0.0
 10
-33.94627589723333
 20
15.79604923915547
 30
0.0
 10
-33.65136022227325
 20
15.82301179906657
 30
0.0
 10
-32.74827231043071
 20
15.89607946149445
 30
0.0
 10
-32.11957636323969
 20
15.93451167276801
 30
0.0
 10
-30.82062975078448
 20
15.98670579306881
 30
0.0
 10
-30.1639478550005
 20
15.99999999999999
 30
0.0
 10
-29.50000000000001
 20
15.99999999999999
 30
0.0
  0
SPLINE
  5
580
330
23
100
AcDbEntity
  8
0
  6
Continuous
 62
     7
370
    25
100
AcDbSpline
210
0.0
220
0.0
230
1.0
 70
     8
 71
     3
 72
    29
 73
    25
 74
     0
 42
0.000000001
 43
0.00000001
 40
0.0
 40
0.0
 40
0.0
 40
0.0
 40
0.125000000000003
 40
0.125000000000003
 40
0.1875000000000037
 40
0.1875000000000037
 40
0.2500000000000045
 40
0.2500000000000045
 40
0.3750000000000054
 40
0.3750000000000054
 40
0.4375000000000051
 40
0.4375000000000051
 40
0.5000000000000046
 40
0.5000000000000046
 40
0.6250000000000047
 40
0.6250000000000047
 40
0.6875000000000039
 40
0.6875000000000039
 40
0.750000000000003
 40
0.8125000000000022
 40
0.8125000000000022
 40
0.8750000000000014
 40
0.8750000000000014
 40
1.0
 40
1.0
 40
1.0
 40
1.0
 10
39.49999999999999
 20
-0.1188032358667469
 30
0.0
 10
39.50000000000001
 20
-0.1124325731522886
 30
0.0
 10
39.43505219907687
 20
-0.1123281096656083
 30
0.0
 10
39.24418920993609
 20
-0.1212058945266707
 30
0.0
 10
39.16487866505575
 20
-0.1256795708394903
 30
0.0
 10
38.97415907996781
 20
-0.1376974453497354
 30
0.0
 10
38.86225015864525
 20
-0.1452815776824545
 30
0.0
 10
38.48531919615144
 20
-0.1721084150426155
 30
0.0
 10
38.17782605705829
 20
-0.1954873530328471
 30
0.0
 10
37.6330553605495
 20
-0.2382928583562934
 30
0.0
 10
37.43658019567876
 20
-0.2539281195069222
 30
0.0
 10
37.01846771584562
 20
-0.2874810660051346
 30
0.0
 10
36.79848870520996
 20
-0.3052638811253741
 30
0.0
 10
36.10679706611585
 20
-0.3613907129224291
 30
0.0
 10
35.60363105375836
 20
-0.402489968949326
 30
0.0
 10
34.78427400243498
 20
-0.4691693200854046
 30
0.0
 10
34.50085822597966
 20
-0.4921944484026081
 30
0.0
 10
33.92466447964095
 20
-0.538831936302827
 30
0.0
 10
33.33619999667462
 20
-0.5862938661576195
 30
0.0
 10
32.72353521445141
 20
-0.6352028813411195
 30
0.0
 10
32.09859132439281
 20
-0.684767381419718
 30
0.0
 10
31.77848703620628
 20
-0.7099937157132654
 30
0.0
 10
30.81137577496867
 20
-0.7856288690952784
 30
0.0
 10
30.15936205788433
 20
-0.8358576065248258
 30
0.0
 10
29.50000003654945
 20
-0.8857390411575149
 30
0.0
  0
SPLINE
  5
581
330
23
100
AcDbEntity
  8
0
  6
Continuous
 62
     7
370
    25
100
AcDbSpline
210
0.0
220
0.0
230
1.0
 70
     8
 71
     3
 72
    29
 73
    25
 74
     0
 42
0.000000001
 43
0.00000001
 40
0.0
 40
0.0
 40
0.0
 40
0.0
 40
0.1249999999999995
 40
0.1249999999999995
 40
0.1874999999999986
 40
0.1874999999999986
 40
0.2499999999999976
 40
0.2499999999999976
 40
0.374999999999997
 40
0.374999999999997
 40
0.4374999999999961
 40
0.4374999999999961
 40
0.4999999999999952
 40
0.4999999999999952
 40
0.6249999999999953
 40
0.6249999999999953
 40
0.6874999999999963
 40
0.6874999999999963
 40
0.7499999999999972
 40
0.8124999999999982
 40
0.8124999999999982
 40
0.8749999999999992
 40
0.8749999999999992
 40
1.0
 40
1.0
 40
1.0
 40
1.0
 10
29.49999999999999
 20
16.0
 30
0.0
 10
30.16383419534523
 20
16.0
 30
0.0
 10
30.81623102903755
 20
15.98671549279202
 30
0.0
 10
31.77843120007454
 20
15.94830065241348
 30
0.0
 10
32.09641181506213
 20
15.93240190137944
 30
0.0
 10
32.72675395691095
 20
15.8945188341229
 30
0.0
 10
33.03947893998633
 20
15.872463023935
 30
0.0
 10
33.94837532123795
 20
15.79908914397859
 30
0.0
 10
34.52271171202707
 20
15.74023330917418
 30
0.0
 10
35.33754395225393
 20
15.63961240510117
 30
0.0
 10
35.60261400876123
 20
15.60380884675683
 30
0.0
 10
36.10978035733908
 20
15.52939372626431
 30
0.0
 10
36.35119215002234
 20
15.49092315101834
 30
0.0
 10
37.04006334985441
 20
15.37253352053352
 30
0.0
 10
37.45250160398808
 20
15.28966054979513
 30
0.0
 10
37.99918930362725
 20
15.16204183035245
 30
0.0
 10
38.1679490369382
 20
15.11923989872706
 30
0.0
 10
38.47468965515993
 20
15.03466734677593
 30
0.0
 10
38.75216634424271
 20
14.9507757447854
 30
0.0
 10
38.9717593349982
 20
14.8689241326779
 30
0.0
 10
39.16188034440538
 20
14.7883989945286
 30
0.0
 10
39.24245039373497
 20
14.74862323298928
 30
0.0
 10
39.43521928441407
 20
14.63343750014657
 30
0.0
 10
39.49999999999999
 20
14.56197699475218
 30
0.0
 10
39.49999999999999
 20
14.49626872598211
 30
0.0
  0
SPLINE
  5
582
330
23
100
AcDbEntity
  8
0
  6
Continuous
 62
     7
370
    25
100
AcDbSpline
210
0.0
220
0.0
230
1.0
 70
    24
 71
     3
 72
     9
 73
     5
 74
     0
 42
0.000000001
 43
0.00000001
 40
0.0
 40
0.0
 40
0.0
 40
0.0
 40
0.8839635730919921
 40
1.0
 40
1.0
 40
1.0
 40
1.0
 10
-39.49999999999971
 20
-0.1188032358279308
 30
0.0
 10
-39.49999999999947
 20
-0.1794285707569163
 30
0.0
 10
-39.49999999999921
 20
-0.2480120924929115
 30
0.0
 10
-39.49999999999921
 20
-0.232752308393612
 30
0.0
 10
-39.4999999999992
 20
-0.2309816175713394
 30
0.0
  0
SPLINE
  5
583
330
23
100
AcDbEntity
  8
0
  6
Continuous
 62
     7
370
    25
100
AcDbSpline
210
0.0
220
0.0
230
1.0
 70
    24
 71
     3
 72
     9
 73
     5
 74
     0
 42
0.000000001
 43
0.00000001
 40
0.0
 40
0.0
 40
0.0
 40
0.0
 40
0.8832693805922323
 40
0.9999999999999999
 40
0.9999999999999999
 40
0.9999999999999999
 40
0.9999999999999999
 10
39.4999999999999
 20
-0.1188032358279308
 30
0.0
 10
39.49999999999983
 20
-0.1794114208635185
 30
0.0
 10
39.49999999999975
 20
-0.2480294284241923
 30
0.0
 10
39.49999999999977
 20
-0.2327382347439948
 30
0.0
 10
39.49999999999977
 20
-0.230953284234222
 30
0.0
  0
LINE
  5
585
330
23
100
AcDbEntity
  8
0
  6
Continuous
 62
     7
370
    25
100
AcDbLine
 10
10.16
 20
59.0501841657
 30
0.0
 11
10.16
 21
59.4633526841
 31
0.0
  0
LINE
  5
586
330
23
100
AcDbEntity
  8
0
  6
Continuous
 62
     7
370
    25
100
AcDbLine
 10
10.16
 20
58.2617746767
 30
0.0
 11
10.16
 21
58.6938391236
 31
0.0
  0
LINE
  5
587
330
23
100
AcDbEntity
  8
0
  6
Continuous
 62
     7
370
    25
100
AcDbLine
 10
10.16
 20
57.4733651877
 30
0.0
 11
10.16
 21
57.9054296346
 31
0.0
  0
LINE
  5
588
330
23
100
AcDbEntity
  8
0
  6
Continuous
 62
     7
370
    25
100
AcDbLine
 10
10.16
 20
56.6849556987
 30
0.0
 11
10.16
 21
57.1170201456
 31
0.0
  0
LINE
  5
589
330
23
100
AcDbEntity
  8
0
  6
Continuous
 62
     7
370
    25
100
AcDbLine
 10
10.16
 20
55.8796731886
 30
0.0
 11
10.16
 21
56.3286106566
 31
0.0
  0
LINE
  5
58A
330
23
100
AcDbEntity
  8
0
  6
Continuous
 62
     7
370
    25
100
AcDbLine
 10
-10.16
 20
56.7228154011
 30
0.0
 11
-10.16
 21
55.8796731886
 31
0.0
  0
LINE
  5
58B
330
23
100
AcDbEntity
  8
0
  6
Continuous
 62
     7
370
    25
100
AcDbLine
 10
-10.16
 20
57.5112248901
 30
0.0
 11
-10.16
 21
57.0791628914
 31
0.0
  0
LINE
  5
58C
330
23
100
AcDbEntity
  8
0
  6
Continuous
 62
     7
370
    25
100
AcDbLine
 10
-10.16
 20
58.2996343791
 30
0.0
 11
-10.16
 21
57.8675723804
 31
0.0
  0
LINE
  5
58D
330
23
100
AcDbEntity
  8
0
  6
Continuous
 62
     7
370
    25
100
AcDbLine
 10
-10.16
 20
59.0880438681
 30
0.0
 11
-10.16
 21
58.6559818694
 31
0.0
  0
LINE
  5
58E
330
23
100
AcDbEntity
  8
0
  6
Continuous
 62
     7
370
    25
100
AcDbLine
 10
-10.16
 20
59.4633526841
 30
0.0
 11
-10.16
 21
59.4443913584
 31
0.0
  0
LINE
  5
58F
330
23
100
AcDbEntity
  8
0
  6
Continuous
 62
     7
370
    25
100
AcDbLine
 10
0.0171170212
 20
46.6465558746
 30
0.0
 11
0.0108415556
 21
47.006211655
 31
0.0
  0
LINE
  5
590
330
23
100
AcDbEntity
  8
0
  6
Continuous
 62
     7
370
    25
100
AcDbLine
 10
-0.0171105045
 20
47.0024784625
 30
0.0
 11
0.0171170212
 21
46.6465558746
 31
0.0
  0
LINE
  5
591
330
23
100
AcDbEntity
  8
0
  6
Continuous
 62
     7
370
    25
100
AcDbLine
 10
-10.0471253048
 20
58.0534072668
 30
0.0
 11
-10.1587282053
 21
59.4444790922
 31
0.0
  0
LINE
  5
592
330
23
100
AcDbEntity
  8
0
  6
Continuous
 62
     7
370
    25
100
AcDbLine
 10
15.0
 20
7.7739280559
 30
0.0
 11
15.0
 21
62.4147361741
 31
0.0
  0
LINE
  5
593
330
23
100
AcDbEntity
  8
0
  6
Continuous
 62
     7
370
    25
100
AcDbLine
 10
-15.0
 20
7.7739280559
 30
0.0
 11
-15.0
 21
62.4147361741
 31
0.0
  0
LINE
  5
594
330
23
100
AcDbEntity
  8
0
  6
Continuous
 62
     7
370
    25
100
AcDbLine
 10
-29.5
 20
16.0
 30
0.0
 11
-29.5
 21
-0.8857389558
 31
0.0
  0
LINE
  5
595
330
23
100
AcDbEntity
  8
0
  6
Continuous
 62
     7
370
    25
100
AcDbLine
 10
29.5
 20
-0.885738558
 30
0.0
 11
29.5
 21
16.0
 31
0.0
  0
LINE
  5
596
330
23
100
AcDbEntity
  8
0
  6
Continuous
 62
     7
370
    25
100
AcDbLine
 10
29.0168958975
 20
16.0
 30
0.0
 11
29.5
 21
16.0
 31
0.0
  0
LINE
  5
597
330
23
100
AcDbEntity
  8
0
  6
Continuous
 62
     7
370
    25
100
AcDbLine
 10
-39.5
 20
-0.1188032358
 30
0.0
 11
-39.5
 21
14.496268726
 31
0.0
  0
LINE
  5
598
330
23
100
AcDbEntity
  8
0
  6
Continuous
 62
     7
370
    25
100
AcDbLine
 10
39.5
 20
14.496268726
 30
0.0
 11
39.5
 21
-0.1188032358
 31
0.0
  0
LINE
  5
599
330
23
100
AcDbEntity
  8
0
  6
Continuous
 62
     7
370
    25
100
AcDbLine
 10
-29.1473460386
 20
16.0
 30
0.0
 11
-29.0168958965
 21
16.0
 31
0.0
  0
ARC
  5
59A
330
23
100
AcDbEntity
  8
0
  6
Continuous
 62
     7
370
    25
100
AcDbCircle
 10
-0.1225352674
 20
52.8827023749
 30
0.0
 40
7.024526981180557
100
AcDbArc
 50
89.0004864683
 51
149.7901321939
  0
ARC
  5
59B
330
23
100
AcDbEntity
  8
0
  6
Continuous
 62
     7
370
    25
100
AcDbCircle
 10
0.0881497262
 20
52.8216661872
 30
0.0
 40
7.085042725997086
100
AcDbArc
 50
30.4965080662
 51
90.7128732717
  0
ARC
  5
59C
330
23
100
AcDbEntity
  8
0
  6
Continuous
 62
     7
370
    25
100
AcDbCircle
 10
0.0
 20
18.9828502946
 30
0.0
 40
18.72538217913258
100
AcDbArc
 50
216.7693460614
 51
323.2306539386
  0
ARC
  5
59D
330
23
100
AcDbEntity
  8
0
  6
Continuous
 62
     7
370
    25
100
AcDbCircle
 10
0.0
 20
60.5535324419
 30
0.0
 40
18.72538217913256
100
AcDbArc
 50
216.7693460614
 51
323.2306539386
  0
ARC
  5
59E
330
23
100
AcDbEntity
  8
0
  6
Continuous
 62
     7
370
    25
100
AcDbCircle
 10
0.0
 20
51.2058139353
 30
0.0
 40
18.72538217913258
100
AcDbArc
 50
36.7693460614
 51
143.2306539386
  0
ARC
  5
59F
330
23
100
AcDbEntity
  8
0
  6
Continuous
 62
     7
370
    25
100
AcDbCircle
 10
-0.1296008439
 20
53.0090667609
 30
0.0
 40
5.964921435665663
100
AcDbArc
 50
88.7550270677
 51
155.4510070454
  0
ARC
  5
5A0
330
23
100
AcDbEntity
  8
0
  6
Continuous
 62
     7
370
    25
100
AcDbCircle
 10
0.0938015487
 20
52.9520044695
 30
0.0
 40
6.021306308648858
100
AcDbArc
 50
24.9013605321
 51
90.8926053547
  0
VIEWPORT
  5
5E8
330
23
100
AcDbEntity
  8
0
100
AcDbViewport
 10
0.0
 20
0.0
 30
0.0
 40
205.6
 41
156.0
 68
     1
 69
     1
 12
0.0
 22
69.3536295787
 13
0.0
 23
0.0
 14
10.0
 24
10.0
 15
10.0
 25
10.0
 16
0.0
 26
0.0
 36
1.0
 17
0.0
 27
0.0
 37
0.0
 42
50.0
 43
0.0
 44
0.0
 45
258.7814043406
 50
0.0
 51
0.0
 72
   100
 90
   557152
  1

281
     0
 71
     1
 74
     0
110
0.0
120
0.0
130
0.0
111
1.0
121
0.0
131
0.0
112
0.0
122
1.0
132
0.0
 79
     0
146
0.0
  0
ENDBLK
  5
25
330
23
100
AcDbEntity
  8
0
100
AcDbBlockEnd
  0
BLOCK
  5
5A3
330
5A1
100
AcDbEntity
  8
0
100
AcDbBlockBegin
  2
*Paper_Space1
 70
     0
 10
0.0
 20
0.0
 30
0.0
  3
*Paper_Space1
  1

  0
SPLINE
  5
5AB
330
5A1
100
AcDbEntity
  8
0
  6
Continuous
 62
     7
370
    25
100
AcDbSpline
210
0.0
220
0.0
230
1.0
 70
     8
 71
     3
 72
     9
 73
     5
 74
     0
 42
0.000000001
 43
0.00000001
 40
0.0
 40
0.0
 40
0.0
 40
0.0
 40
0.5000515464153596
 40
1.0
 40
1.0
 40
1.0
 40
1.0
 10
-7.973853375727889
 20
-192.9021930538183
 30
0.0
 10
-7.866847689982642
 20
-192.9455182025953
 30
0.0
 10
-7.652858379255933
 20
-193.0321595680455
 30
0.0
 10
-7.436894778902094
 20
-193.1196628432009
 30
0.0
 10
-7.328924110874619
 20
-193.1634099702984
 30
0.0
  0
SPLINE
  5
5AC
330
5A1
100
AcDbEntity
  8
0
  6
Continuous
 62
     7
370
    25
100
AcDbSpline
210
0.0
220
0.0
230
1.0
 70
     8
 71
     3
 72
     9
 73
     5
 74
     0
 42
0.000000001
 43
0.00000001
 40
0.0
 40
0.0
 40
0.0
 40
0.0
 40
0.5000515464153705
 40
1.0
 40
1.0
 40
1.0
 40
1.0
 10
-7.973853375727889
 20
-190.8483161155245
 30
0.0
 10
-7.866847689982636
 20
-190.8916412643014
 30
0.0
 10
-7.652858379255925
 20
-190.9782826297517
 30
0.0
 10
-7.436894778902088
 20
-191.065785904907
 30
0.0
 10
-7.328924110874619
 20
-191.1095330320045
 30
0.0
  0
SPLINE
  5
5AD
330
5A1
100
AcDbEntity
  8
0
  6
Continuous
 62
     7
370
    25
100
AcDbSpline
210
0.0
220
0.0
230
1.0
 70
     8
 71
     3
 72
     9
 73
     5
 74
     0
 42
0.000000001
 43
0.00000001
 40
0.0
 40
0.0
 40
0.0
 40
0.0
 40
0.500051546415359
 40
1.0
 40
1.0
 40
1.0
 40
1.0
 10
-7.973853375727889
 20
-188.7944391772306
 30
0.0
 10
-7.866847689982621
 20
-188.8377643260076
 30
0.0
 10
-7.65285837925587
 20
-188.9244056914579
 30
0.0
 10
-7.436894778902071
 20
-189.0119089666132
 30
0.0
 10
-7.328924110874619
 20
-189.0556560937107
 30
0.0
  0
SPLINE
  5
5AE
330
5A1
100
AcDbEntity
  8
0
  6
Continuous
 62
     7
370
    25
100
AcDbSpline
210
0.0
220
0.0
230
1.0
 70
     8
 71
     3
 72
     9
 73
     5
 74
     0
 42
0.000000001
 43
0.00000001
 40
0.0
 40
0.0
 40
0.0
 40
0.0
 40
0.4999551218170228
 40
1.0
 40
1.0
 40
1.0
 40
1.0
 10
6.550726258791422
 20
-192.9260894996108
 30
0.0
 10
6.657049832738251
 20
-192.8830126987093
 30
0.0
 10
6.869716068780424
 20
-192.7968513633778
 30
0.0
 10
7.084273867892121
 20
-192.7099909950408
 30
0.0
 10
7.191562396412138
 20
-192.6665569127367
 30
0.0
  0
SPLINE
  5
5AF
330
5A1
100
AcDbEntity
  8
0
  6
Continuous
 62
     7
370
    25
100
AcDbSpline
210
0.0
220
0.0
230
1.0
 70
     8
 71
     3
 72
     9
 73
     5
 74
     0
 42
0.000000001
 43
0.00000001
 40
0.0
 40
0.0
 40
0.0
 40
0.0
 40
0.4999551218170017
 40
1.0
 40
1.0
 40
1.0
 40
1.0
 10
6.550726258791422
 20
-190.872212561317
 30
0.0
 10
6.657049832738262
 20
-190.8291357604155
 30
0.0
 10
6.869716068780458
 20
-190.742974425084
 30
0.0
 10
7.084273867892128
 20
-190.6561140567469
 30
0.0
 10
7.191562396412138
 20
-190.6126799744428
 30
0.0
  0
SPLINE
  5
5B0
330
5A1
100
AcDbEntity
  8
0
  6
Continuous
 62
     7
370
    25
100
AcDbSpline
210
0.0
220
0.0
230
1.0
 70
     8
 71
     3
 72
     9
 73
     5
 74
     0
 42
0.000000001
 43
0.00000001
 40
0.0
 40
0.0
 40
0.0
 40
0.0
 40
0.4999551218170113
 40
1.0
 40
1.0
 40
1.0
 40
1.0
 10
6.550726258791422
 20
-188.8183356230231
 30
0.0
 10
6.657049832738273
 20
-188.7752588221216
 30
0.0
 10
6.869716068780483
 20
-188.6890974867902
 30
0.0
 10
7.084273867892142
 20
-188.602237118453
 30
0.0
 10
7.191562396412138
 20
-188.558803036149
 30
0.0
  0
SPLINE
  5
5B1
330
5A1
100
AcDbEntity
  8
0
  6
Continuous
 62
     7
370
    25
100
AcDbSpline
210
0.0
220
0.0
230
1.0
 70
     8
 71
     3
 72
     9
 73
     5
 74
     0
 42
0.000000001
 43
0.00000001
 40
0.0
 40
0.0
 40
0.0
 40
0.0
 40
0.4999551218170004
 40
1.0
 40
1.0
 40
1.0
 40
1.0
 10
6.550726258791422
 20
-194.9799664379047
 30
0.0
 10
6.657049832738241
 20
-194.9368896370032
 30
0.0
 10
6.8697160687804
 20
-194.8507283016718
 30
0.0
 10
7.084273867892111
 20
-194.7638679333347
 30
0.0
 10
7.191562396412138
 20
-194.7204338510305
 30
0.0
  0
SPLINE
  5
5B3
330
5A1
100
AcDbEntity
  8
0
  6
Continuous
 62
     7
370
    25
100
AcDbSpline
210
0.0
220
0.0
230
1.0
 70
     8
 71
     3
 72
    14
 73
    10
 74
     0
 42
0.000000001
 43
0.00000001
 40
0.0
 40
0.0
 40
0.0
 40
0.0
 40
0.125
 40
0.125
 40
0.25
 40
0.25
 40
0.5
 40
0.5
 40
1.0
 40
1.0
 40
1.0
 40
1.0
 10
-38.58323745923478
 20
51.68267823997423
 30
0.0
 10
-38.54634810444054
 20
50.7806983913224
 30
0.0
 10
-38.52885153071514
 20
49.87952558562536
 30
0.0
 10
-38.51598552766995
 20
48.07810080946051
 30
0.0
 10
-38.52101454953146
 20
47.17786542079281
 30
0.0
 10
-38.56095679518422
 20
44.47819361896321
 30
0.0
 10
-38.6203829966309
 20
42.67977732900322
 30
0.0
 10
-38.8725125893425
 20
37.28760181511351
 30
0.0
 10
-39.13892236536298
 20
33.69690992940247
 30
0.0
 10
-39.49999998626681
 20
30.11015770644446
 30
0.0
  0
SPLINE
  5
5B4
330
5A1
100
AcDbEntity
  8
0
  6
Continuous
 62
     7
370
    25
100
AcDbSpline
210
0.0
220
0.0
230
1.0
 70
     8
 71
     3
 72
    22
 73
    18
 74
     0
 42
0.000000001
 43
0.00000001
 40
0.0
 40
0.0
 40
0.0
 40
0.0
 40
0.2500000000000019
 40
0.2500000000000019
 40
0.3750000000000028
 40
0.3750000000000028
 40
0.5000000000000038
 40
0.5000000000000038
 40
0.5625000000000038
 40
0.5625000000000038
 40
0.6250000000000038
 40
0.6250000000000038
 40
0.7500000000000026
 40
0.7500000000000026
 40
0.8750000000000012
 40
0.8750000000000012
 40
1.0
 40
1.0
 40
1.0
 40
1.0
 10
-29.49999999952317
 20
57.49999999999991
 30
0.0
 10
-30.45761902468079
 20
57.5000000000456
 30
0.0
 10
-31.39228778916702
 20
57.36521434603695
 30
0.0
 10
-32.76063555931351
 20
56.96541375439604
 30
0.0
 10
-33.21163641164714
 20
56.79773882523803
 30
0.0
 10
-34.07353766914067
 20
56.40544469993245
 30
0.0
 10
-34.48821822940475
 20
56.17993994831458
 30
0.0
 10
-35.08591732232136
 20
55.79779773920885
 30
0.0
 10
-35.28108170911407
 20
55.66307571716289
 30
0.0
 10
-35.66309982274917
 20
55.37863639638338
 30
0.0
 10
-35.8504396809134
 20
55.22842762102764
 30
0.0
 10
-36.3913088282437
 20
54.76199512333214
 30
0.0
 10
-36.72639612177593
 20
54.42834870358193
 30
0.0
 10
-37.34689438536763
 20
53.71683723223713
 30
0.0
 10
-37.63230760355711
 20
53.33897418588204
 30
0.0
 10
-38.15170350721137
 20
52.53746691558128
 30
0.0
 10
-38.38296976810063
 20
52.11758594494639
 30
0.0
 10
-38.58323745923477
 20
51.68267823997426
 30
0.0
  0
SPLINE
  5
5B6
330
5A1
100
AcDbEntity
  8
0
  6
Continuous
 62
     7
370
    25
100
AcDbSpline
210
0.0
220
0.0
230
1.0
 70
     8
 71
     3
 72
    22
 73
    18
 74
     0
 42
0.000000001
 43
0.00000001
 40
0.0
 40
0.0
 40
0.0
 40
0.0
 40
0.2499999999999985
 40
0.2499999999999985
 40
0.3749999999999983
 40
0.3749999999999983
 40
0.4999999999999982
 40
0.4999999999999982
 40
0.5624999999999982
 40
0.5624999999999982
 40
0.6249999999999981
 40
0.6249999999999981
 40
0.7499999999999987
 40
0.7499999999999987
 40
0.8749999999999993
 40
0.8749999999999993
 40
1.0
 40
1.0
 40
1.0
 40
1.0
 10
38.58323745923363
 20
51.68267823997677
 30
0.0
 10
38.18270213485138
 20
52.5524935242132
 30
0.0
 10
37.66934247799314
 20
53.34508584243085
 30
0.0
 10
36.73387428773928
 20
54.42075567017189
 30
0.0
 10
36.39293684254891
 20
54.76027623554747
 30
0.0
 10
35.67610908430281
 20
55.37907773223593
 30
0.0
 10
35.29783332081134
 20
55.66142187710302
 30
0.0
 10
34.70072894189882
 20
56.04449167832048
 30
0.0
 10
34.49672735808378
 20
56.16541555978083
 30
0.0
 10
34.07857902675183
 20
56.393442821006
 30
0.0
 10
33.86378228955371
 20
56.50078232994326
 30
0.0
 10
33.21387958089792
 20
56.79697865680852
 30
0.0
 10
32.77066081919882
 20
56.96179686683197
 30
0.0
 10
31.86483360575809
 20
57.22781497359561
 30
0.0
 10
31.40222602707837
 20
57.32901774146007
 30
0.0
 10
30.45693690522507
 20
57.46555695279746
 30
0.0
 10
29.97880937622809
 20
57.50000000002278
 30
0.0
 10
29.49999999952319
 20
57.49999999999994
 30
0.0
  0
SPLINE
  5
5B7
330
5A1
100
AcDbEntity
  8
0
  6
Continuous
 62
     7
370
    25
100
AcDbSpline
210
0.0
220
0.0
230
1.0
 70
     8
 71
     3
 72
    14
 73
    10
 74
     0
 42
0.000000001
 43
0.00000001
 40
0.0
 40
0.0
 40
0.0
 40
0.0
 40
0.5000000000000004
 40
0.5000000000000004
 40
0.7500000000000007
 40
0.7500000000000007
 40
0.8750000000000003
 40
0.8750000000000003
 40
1.0
 40
1.0
 40
1.0
 40
1.0
 10
39.50000000000023
 20
30.11015757003303
 30
0.0
 10
39.13907834365616
 20
33.69536049977212
 30
0.0
 10
38.87260673519831
 20
37.2858313016479
 30
0.0
 10
38.62037798817842
 20
42.67976300324125
 30
0.0
 10
38.56091398137051
 20
44.47911296425413
 30
0.0
 10
38.52098449793892
 20
47.1808857049488
 30
0.0
 10
38.51598017084318
 20
48.08225559686148
 30
0.0
 10
38.52891488841091
 20
49.88346964998625
 30
0.0
 10
38.54646430850356
 20
50.78353969133057
 30
0.0
 10
38.58323745923364
 20
51.68267823997678
 30
0.0
  0
SPLINE
  5
5B8
330
5A1
100
AcDbEntity
  8
0
  6
Continuous
 62
     7
370
    25
100
AcDbSpline
210
0.0
220
0.0
230
1.0
 70
    24
 71
     3
 72
    11
 73
     7
 74
     0
 42
0.000000001
 43
0.00000001
 40
0.0867452198253127
 40
0.0867452198253127
 40
0.0867452198253127
 40
0.0867452198253127
 40
0.7030997745177655
 40
0.7401050315604635
 40
0.7487681916145684
 40
0.7626867633417699
 40
0.7626867633417699
 40
0.7626867633417699
 40
0.7626867633417699
 10
39.4999999999997
 20
-47.49999999999964
 30
0.0
 10
39.49999999999904
 20
-23.85280458043063
 30
0.0
 10
39.49999999999869
 20
0.959050287569263
 30
0.0
 10
39.50000000000021
 20
26.41458476852435
 30
0.0
 10
39.50000000000037
 20
28.70629355789518
 30
0.0
 10
39.50000000000043
 20
29.57481812331736
 30
0.0
 10
39.50000000000046
 20
30.11015770583006
 30
0.0
  0
SPLINE
  5
5B9
330
5A1
100
AcDbEntity
  8
0
  6
Continuous
 62
     7
370
    25
100
AcDbSpline
210
0.0
220
0.0
230
1.0
 70
     8
 71
     3
 72
    27
 73
    23
 74
     0
 42
0.000000001
 43
0.00000001
 40
0.0
 40
0.0
 40
0.0
 40
0.0
 40
0.1250000000000023
 40
0.1250000000000023
 40
0.1875000000000028
 40
0.1875000000000028
 40
0.2500000000000033
 40
0.2500000000000033
 40
0.3750000000000032
 40
0.3750000000000032
 40
0.500000000000003
 40
0.500000000000003
 40
0.6250000000000028
 40
0.6250000000000028
 40
0.6875000000000022
 40
0.6875000000000022
 40
0.7500000000000018
 40
0.8125000000000012
 40
0.8125000000000012
 40
0.8750000000000008
 40
0.8750000000000008
 40
1.0
 40
1.0
 40
1.0
 40
1.0
 10
29.50000000662685
 20
-57.49999999999996
 30
0.0
 10
30.15940794472959
 20
-57.49999999956299
 30
0.0
 10
30.80778287781285
 20
-57.435416770615
 30
0.0
 10
31.76449368668554
 20
-57.24565384970612
 30
0.0
 10
32.08073590274916
 20
-57.16680329135701
 30
0.0
 10
32.7077823240757
 20
-56.97720508561868
 30
0.0
 10
33.01954325224435
 20
-56.86588949311368
 30
0.0
 10
33.92666913479466
 20
-56.49071093838521
 30
0.0
 10
34.50042352331477
 20
-56.1845556487452
 30
0.0
 10
35.58653749846023
 20
-55.46114335434985
 30
0.0
 10
36.10130088794014
 20
-55.03975936496178
 30
0.0
 10
37.0244775697993
 20
-54.11871452747701
 30
0.0
 10
37.43885664193535
 20
-53.61607855181813
 30
0.0
 10
37.98794600151744
 20
-52.7974274967787
 30
0.0
 10
38.15872979930098
 20
-52.51335109569306
 30
0.0
 10
38.46824525590888
 20
-51.93597429837655
 30
0.0
 10
38.74789729813015
 20
-51.34634540340041
 30
0.0
 10
38.96876062008027
 20
-50.73259354206105
 30
0.0
 10
39.15984546727314
 20
-50.1066212300524
 30
0.0
 10
39.240744605621
 20
-49.78621551937888
 30
0.0
 10
39.43503556620853
 20
-48.81552871124364
 30
0.0
 10
39.49999999999967
 20
-48.16132563338753
 30
0.0
 10
39.49999999999971
 20
-47.50000000000047
 30
0.0
  0
SPLINE
  5
5BB
330
5A1
100
AcDbEntity
  8
0
  6
Continuous
 62
     7
370
    25
100
AcDbSpline
210
0.0
220
0.0
230
1.0
 70
     8
 71
     3
 72
    29
 73
    25
 74
     0
 42
0.000000001
 43
0.00000001
 40
0.0
 40
0.0
 40
0.0
 40
0.0
 40
0.125000000000003
 40
0.125000000000003
 40
0.1875000000000037
 40
0.1875000000000037
 40
0.2500000000000045
 40
0.2500000000000045
 40
0.3750000000000054
 40
0.3750000000000054
 40
0.4375000000000051
 40
0.4375000000000051
 40
0.5000000000000046
 40
0.5000000000000046
 40
0.6250000000000047
 40
0.6250000000000047
 40
0.6875000000000039
 40
0.6875000000000039
 40
0.750000000000003
 40
0.8125000000000022
 40
0.8125000000000022
 40
0.8750000000000014
 40
0.8750000000000014
 40
1.0
 40
1.0
 40
1.0
 40
1.0
 10
-39.49999999999999
 20
-47.50000000000003
 30
0.0
 10
-39.50000000000001
 20
-48.16127976980857
 30
0.0
 10
-39.43505219907687
 20
-48.81150165161512
 30
0.0
 10
-39.24418920993609
 20
-49.77092521587741
 30
0.0
 10
-39.16487866505575
 20
-50.08806179381961
 30
0.0
 10
-38.97415907996781
 20
-50.71687009161734
 30
0.0
 10
-38.86225015864525
 20
-51.02927342545959
 30
0.0
 10
-38.48531919615144
 20
-51.93779615598832
 30
0.0
 10
-38.17782605705829
 20
-52.51225067917967
 30
0.0
 10
-37.6330553605495
 20
-53.32754159050886
 30
0.0
 10
-37.43658019567876
 20
-53.59255136139015
 30
0.0
 10
-37.01846771584562
 20
-54.10160060132421
 30
0.0
 10
-36.79848870520996
 20
-54.3438503501491
 30
0.0
 10
-36.10679706611585
 20
-55.0349275051862
 30
0.0
 10
-35.60363105375836
 20
-55.44842091384636
 30
0.0
 10
-34.78427400243498
 20
-55.99613883085768
 30
0.0
 10
-34.50085822597966
 20
-56.16591682629257
 30
0.0
 10
-33.92466447964095
 20
-56.47379750602683
 30
0.0
 10
-33.33619999667462
 20
-56.75203043786648
 30
0.0
 10
-32.72353521445141
 20
-56.97182663086146
 30
0.0
 10
-32.09859132439281
 20
-57.16198748357166
 30
0.0
 10
-31.77848703620628
 20
-57.24251272584525
 30
0.0
 10
-30.81137577496867
 20
-57.43541761208313
 30
0.0
 10
-30.15936205788433
 20
-57.49999999759009
 30
0.0
 10
-29.50000003654945
 20
-57.5
 30
0.0
  0
SPLINE
  5
5BC
330
5A1
100
AcDbEntity
  8
0
  6
Continuous
 62
     7
370
    25
100
AcDbSpline
210
0.0
220
0.0
230
1.0
 70
    24
 71
     3
 72
    11
 73
     7
 74
     0
 42
0.000000001
 43
0.00000001
 40
0.0867452198253126
 40
0.0867452198253126
 40
0.0867452198253126
 40
0.0867452198253126
 40
0.7030997745177655
 40
0.7401050315604635
 40
0.7487681916145684
 40
0.7626867633417699
 40
0.7626867633417699
 40
0.7626867633417699
 40
0.7626867633417699
 10
-39.49999999999989
 20
-47.49999999999965
 30
0.0
 10
-39.49999999999976
 20
-23.85280458043064
 30
0.0
 10
-39.49999999999954
 20
0.959050287569263
 30
0.0
 10
-39.49999999999972
 20
26.41458476852435
 30
0.0
 10
-39.49999999999974
 20
28.70629355789518
 30
0.0
 10
-39.49999999999974
 20
29.57481812331736
 30
0.0
 10
-39.49999999999974
 20
30.11015770583006
 30
0.0
  0
SPLINE
  5
5BD
330
5A1
100
AcDbEntity
  8
0
  6
Continuous
 62
     7
370
    25
100
AcDbSpline
210
0.0
220
0.0
230
1.0
 70
     8
 71
     3
 72
    14
 73
    10
 74
     0
 42
0.000000001
 43
0.00000001
 40
0.0
 40
0.0
 40
0.0
 40
0.0
 40
0.2051292197169669
 40
0.2051292197169669
 40
0.4038469147877243
 40
0.5032057623231037
 40
0.6025646098584829
 40
0.7499999999999998
 40
1.0
 40
1.0
 40
1.0
 40
1.0
 10
-15.00000000000001
 20
-77.74660375026394
 30
0.0
 10
-15.0
 20
-76.18965370009725
 30
0.0
 10
-15.00000000002929
 20
-74.51051491958225
 30
0.0
 10
-14.99999999996859
 20
-71.0040589319857
 30
0.0
 10
-15.44986136724214
 20
-68.28814429276342
 30
0.0
 10
-17.08737727254672
 20
-64.84719885511497
 30
0.0
 10
-19.13662127965637
 20
-62.06490572411211
 30
0.0
 10
-23.02366020153809
 20
-58.84792880209934
 30
0.0
 10
-26.9571262411644
 20
-57.62486088657973
 30
0.0
 10
-29.50000002575555
 20
-57.50000000000002
 30
0.0
  0
SPLINE
  5
5BE
330
5A1
100
AcDbEntity
  8
0
  6
Continuous
 62
     7
370
    25
100
AcDbSpline
210
0.0
220
0.0
230
1.0
 70
     8
 71
     3
 72
    14
 73
    10
 74
     0
 42
0.000000001
 43
0.00000001
 40
0.0
 40
0.0
 40
0.0
 40
0.0
 40
0.2051292197169669
 40
0.2051292197169669
 40
0.4038469147877243
 40
0.5032057623231037
 40
0.6025646098584829
 40
0.7499999999999998
 40
1.0
 40
1.0
 40
1.0
 40
1.0
 10
15.0
 20
-77.74660375026394
 30
0.0
 10
15.0
 20
-76.18965370009721
 30
0.0
 10
15.00000000002929
 20
-74.51051491958225
 30
0.0
 10
14.99999999996859
 20
-71.0040589319857
 30
0.0
 10
15.44986136724218
 20
-68.28814429276325
 30
0.0
 10
17.08737727254684
 20
-64.84719885511473
 30
0.0
 10
19.13662127965664
 20
-62.06490572411181
 30
0.0
 10
23.02366020153867
 20
-58.84792880209909
 30
0.0
 10
26.9571262411643
 20
-57.6248608865797
 30
0.0
 10
29.49999999583279
 20
-57.50000000000002
 30
0.0
  0
LWPOLYLINE
  5
5BF
330
5A1
100
AcDbEntity
  8
0
  6
Continuous
 62
     7
370
    25
100
AcDbPolyline
 90
       19
 70
   128
 43
0.0
 10
-15.0
 20
-77.7466037503
 10
-13.8177417287
 20
-78.3093779601
 10
-12.4718396874
 20
-78.8227803825
 10
-10.9782334188
 20
-79.2807307829
 10
-9.3546117294
 20
-79.6778056464
 10
-7.6202032009
 20
-80.009302408
 10
-5.7955484654
 20
-80.2712951455
 10
-3.9022569427
 20
-80.460681074
 10
-1.962750919
 20
-80.5752172926
 10
0.0
 20
-80.6135473466
 10
1.962750919
 20
-80.5752172926
 10
3.9022569427
 20
-80.460681074
 10
5.7955484654
 20
-80.2712951455
 10
7.6202032009
 20
-80.009302408
 10
9.3546117294
 20
-79.6778056464
 10
10.9782334188
 20
-79.2807307829
 10
12.4718396874
 20
-78.8227803825
 10
13.8177417287
 20
-78.3093779601
 10
15.0
 20
-77.7466037503
  0
LWPOLYLINE
  5
5C6
330
5A1
100
AcDbEntity
  8
0
  6
Continuous
 62
     7
370
    25
100
AcDbPolyline
 90
       19
 70
   128
 43
0.0
 10
15.0
 20
-186.0419332239
 10
13.8177417287
 20
-186.6047074338
 10
12.4718396874
 20
-187.1181098561
 10
10.9782334188
 20
-187.5760602566
 10
9.3546117294
 20
-187.97313512
 10
7.6202032009
 20
-188.3046318817
 10
5.7955484654
 20
-188.5666246191
 10
3.9022569427
 20
-188.7560105477
 10
1.962750919
 20
-188.8705467663
 10
0.0
 20
-188.9088768203
 10
-1.962750919
 20
-188.8705467663
 10
-3.9022569427
 20
-188.7560105477
 10
-5.7955484654
 20
-188.5666246191
 10
-7.6202032009
 20
-188.3046318817
 10
-9.3546117294
 20
-187.97313512
 10
-10.9782334188
 20
-187.5760602566
 10
-12.4718396874
 20
-187.1181098561
 10
-13.8177417287
 20
-186.6047074338
 10
-15.0
 20
-186.0419332239
  0
LWPOLYLINE
  5
5C7
330
5A1
100
AcDbEntity
  8
0
  6
Continuous
 62
     7
370
    25
100
AcDbPolyline
 90
        3
 70
   128
 43
0.0
 10
-10.0479362667
 20
-193.4084522389
 10
-10.1598545102
 20
-192.8886470786
 10
-10.16
 20
-192.8691618421
  0
LWPOLYLINE
  5
5C8
330
5A1
100
AcDbEntity
  8
0
  6
Continuous
 62
     7
370
    25
100
AcDbPolyline
 90
        3
 70
   128
 43
0.0
 10
10.16
 20
-192.8691618421
 10
10.1598237917
 20
-192.8906056694
 10
10.0471253048
 20
-193.4103891792
  0
SPLINE
  5
5C9
330
5A1
100
AcDbEntity
  8
0
  6
Continuous
 62
     7
370
    25
100
AcDbSpline
210
0.0
220
0.0
230
1.0
 70
     8
 71
     3
 72
     9
 73
     5
 74
     0
 42
0.000000001
 43
0.00000001
 40
0.0
 40
0.0
 40
0.0
 40
0.0
 40
0.5647888630498445
 40
0.9999999999999999
 40
0.9999999999999999
 40
0.9999999999999999
 40
0.9999999999999999
 10
10.04712530477219
 20
-193.4103891791647
 30
0.0
 10
10.11447425217022
 20
-193.2109433495481
 30
0.0
 10
10.23372049055096
 20
-192.8578099174554
 30
0.0
 10
10.07337318453296
 20
-192.5078923845091
 30
0.0
 10
10.00358825117397
 20
-192.3556043771566
 30
0.0
  0
SPLINE
  5
5CA
330
5A1
100
AcDbEntity
  8
0
  6
Continuous
 62
     7
370
    25
100
AcDbSpline
210
0.0
220
0.0
230
1.0
 70
     8
 71
     3
 72
    22
 73
    18
 74
     0
 42
0.000000001
 43
0.00000001
 40
0.0
 40
0.0
 40
0.0
 40
0.0
 40
0.0421966399789422
 40
0.1193306842459005
 40
0.1958533301564485
 40
0.2733064219160833
 40
0.3496809840868063
 40
0.4270274356662032
 40
0.5038450339014319
 40
0.5806626321366611
 40
0.6580090837160583
 40
0.7343836458867806
 40
0.7971149168124922
 40
0.8594810166695137
 40
0.9213345604520122
 40
0.9657639246156364
 40
1.0
 40
1.0
 40
1.0
 40
1.0
 10
-9.972079969057312
 20
-191.3286658682483
 30
0.0
 10
-10.05417335131307
 20
-191.4848916528478
 30
0.0
 10
-10.28633068615133
 20
-191.926692938031
 30
0.0
 10
-9.901147410507036
 20
-192.6657134906084
 30
0.0
 10
-8.895577859297102
 20
-193.4698784602371
 30
0.0
 10
-7.254623213521463
 20
-194.141897867976
 30
0.0
 10
-5.122525310653288
 20
-194.6441617933226
 30
0.0
 10
-2.644759497473503
 20
-194.9225801597146
 30
0.0
 10
0.0172599577572333
 20
-194.9615105416043
 30
0.0
 10
2.678380635890969
 20
-194.7496928154722
 30
0.0
 10
5.151849477112873
 20
-194.2926975947975
 30
0.0
 10
7.14588005790006
 20
-193.6651818297851
 30
0.0
 10
8.606633265751642
 20
-192.9377284073177
 30
0.0
 10
9.5845934836366
 20
-192.1749313337456
 30
0.0
 10
10.05421303078576
 20
-191.4378625510578
 30
0.0
 10
10.22843215168172
 20
-190.8034385305396
 30
0.0
 10
10.07176955708568
 20
-190.4538655104033
 30
0.0
 10
10.00358825117397
 20
-190.3017274388628
 30
0.0
  0
SPLINE
  5
5CB
330
5A1
100
AcDbEntity
  8
0
  6
Continuous
 62
     7
370
    25
100
AcDbSpline
210
0.0
220
0.0
230
1.0
 70
     8
 71
     3
 72
    22
 73
    18
 74
     0
 42
0.000000001
 43
0.00000001
 40
0.0
 40
0.0
 40
0.0
 40
0.0
 40
0.0421966399789425
 40
0.1193306842459008
 40
0.1958533301564487
 40
0.2733064219160835
 40
0.3496809840868064
 40
0.4270274356662032
 40
0.5038450339014318
 40
0.580662632136661
 40
0.6580090837160582
 40
0.7343836458867804
 40
0.797114916812492
 40
0.8594810166695134
 40
0.9213345604520122
 40
0.9657639246156364
 40
1.0
 40
1.0
 40
1.0
 40
1.0
 10
-9.972079969057308
 20
-189.2747889299544
 30
0.0
 10
-10.05417335131308
 20
-189.431014714554
 30
0.0
 10
-10.28633068615133
 20
-189.8728159997371
 30
0.0
 10
-9.901147410507038
 20
-190.6118365523146
 30
0.0
 10
-8.895577859297102
 20
-191.4160015219433
 30
0.0
 10
-7.254623213521462
 20
-192.0880209296821
 30
0.0
 10
-5.122525310653288
 20
-192.5902848550288
 30
0.0
 10
-2.644759497473503
 20
-192.8687032214208
 30
0.0
 10
0.017259957757235
 20
-192.9076336033105
 30
0.0
 10
2.678380635890968
 20
-192.6958158771783
 30
0.0
 10
5.151849477112873
 20
-192.2388206565038
 30
0.0
 10
7.14588005790006
 20
-191.6113048914912
 30
0.0
 10
8.606633265751638
 20
-190.8838514690239
 30
0.0
 10
9.584593483636606
 20
-190.1210543954517
 30
0.0
 10
10.05421303078576
 20
-189.383985612764
 30
0.0
 10
10.22843215168172
 20
-188.7495615922457
 30
0.0
 10
10.07176955708568
 20
-188.3999885721094
 30
0.0
 10
10.00358825117397
 20
-188.2478505005689
 30
0.0
  0
SPLINE
  5
5CC
330
5A1
100
AcDbEntity
  8
0
  6
Continuous
 62
     7
370
    25
100
AcDbSpline
210
0.0
220
0.0
230
1.0
 70
     8
 71
     3
 72
    20
 73
    16
 74
     0
 42
0.000000001
 43
0.00000001
 40
0.0
 40
0.0
 40
0.0
 40
0.0
 40
0.0005940568986546
 40
0.0936988275515065
 40
0.1860656088471025
 40
0.2795554862827677
 40
0.3717435228649904
 40
0.465104680101711
 40
0.5578274840693178
 40
0.6505502880369254
 40
0.7439114452736464
 40
0.8360994818558684
 40
0.9118193620696718
 40
0.9870984619649718
 40
1.0
 40
1.0
 40
1.0
 40
1.0
 10
-10.15779397778828
 20
-187.6851701668906
 30
0.0
 10
-10.15852880416656
 20
-187.686996328666
 30
0.0
 10
-10.27443078300893
 20
-187.9750313934243
 30
0.0
 10
-9.86903703276688
 20
-188.5585424634573
 30
0.0
 10
-8.90427359385169
 20
-189.3619666707526
 30
0.0
 10
-7.252315550102376
 20
-190.0341861727521
 30
0.0
 10
-5.123159742935344
 20
-190.5363953102147
 30
0.0
 10
-2.644548614633495
 20
-190.8148342303929
 30
0.0
 10
0.0170510145246876
 20
-190.8537376209537
 30
0.0
 10
2.679008402934599
 20
-190.6420074300893
 30
0.0
 10
5.149542912410262
 20
-190.1846882685165
 30
0.0
 10
7.153715885432524
 20
-189.5582967091093
 30
0.0
 10
8.58318951252449
 20
-188.8273751537912
 30
0.0
 10
9.373858633984936
 20
-188.2822517913957
 30
0.0
 10
9.574077633646743
 20
-187.9631868258442
 30
0.0
 10
9.603371286994015
 20
-187.9165050498293
 30
0.0
  0
SPLINE
  5
5CD
330
5A1
100
AcDbEntity
  8
0
  6
Continuous
 62
     7
370
    25
100
AcDbSpline
210
0.0
220
0.0
230
1.0
 70
     8
 71
     3
 72
    16
 73
    12
 74
     0
 42
0.000000001
 43
0.00000001
 40
0.0
 40
0.0
 40
0.0
 40
0.0
 40
0.0480178764371628
 40
0.1724619150943913
 40
0.2984895417907009
 40
0.4236554595078089
 40
0.5488213772249113
 40
0.6748490039212223
 40
0.799293042578452
 40
0.9254944278448256
 40
1.0
 40
1.0
 40
1.0
 40
1.0
 10
7.784923796840433
 20
-188.2478502941681
 30
0.0
 10
7.586348877676986
 20
-188.3577172061976
 30
0.0
 10
6.873143434419675
 20
-188.75231728975
 30
0.0
 10
5.10008482654757
 20
-189.2575432640436
 30
0.0
 10
2.650840352391831
 20
-189.719638522242
 30
0.0
 10
-0.0192245366297372
 20
-189.9261397041664
 30
0.0
 10
-2.676615314517026
 20
-189.8843397115258
 30
0.0
 10
-5.156980219729324
 20
-189.6036610366043
 30
0.0
 10
-7.262932000572547
 20
-189.0955850430225
 30
0.0
 10
-8.745053566988476
 20
-188.5223756629014
 30
0.0
 10
-9.2314046956448
 20
-188.0886945310399
 30
0.0
 10
-9.411945866585615
 20
-187.9277052894244
 30
0.0
  0
SPLINE
  5
5CE
330
5A1
100
AcDbEntity
  8
0
  6
Continuous
 62
     7
370
    25
100
AcDbSpline
210
0.0
220
0.0
230
1.0
 70
     8
 71
     3
 72
    20
 73
    16
 74
     0
 42
0.000000001
 43
0.00000001
 40
0.0
 40
0.0
 40
0.0
 40
0.0
 40
0.0005332443687892
 40
0.0840752270577929
 40
0.1669550192524084
 40
0.2508425544190957
 40
0.3335619607640299
 40
0.4173339965792157
 40
0.5005332443687895
 40
0.5837324921583597
 40
0.6675045279735463
 40
0.7502239343184813
 40
0.8341114694851678
 40
0.9169912616797835
 40
1.0
 40
1.0
 40
1.0
 40
1.0
 10
10.1577931428225
 20
-187.783798102113
 30
0.0
 10
10.158528247118
 20
-187.7859918550788
 30
0.0
 10
10.27443019409155
 20
-188.1318750739343
 30
0.0
 10
9.86903575261563
 20
-188.8315977327653
 30
0.0
 10
8.904269507059254
 20
-189.8012564561207
 30
0.0
 10
7.252313584312424
 20
-190.650674763812
 30
0.0
 10
5.123144111898251
 20
-191.3176816341933
 30
0.0
 10
2.644579670916053
 20
-191.7718537889436
 30
0.0
 10
-0.0171961608939914
 20
-191.9804154797821
 30
0.0
 10
-2.678496064826465
 20
-191.9382774805069
 30
0.0
 10
-5.151488942087716
 20
-191.656890409289
 30
0.0
 10
-7.28285156122561
 20
-191.1519683918666
 30
0.0
 10
-8.898740155054917
 20
-190.4783034198024
 30
0.0
 10
-9.960118432211067
 20
-189.673418272663
 30
0.0
 10
-10.09186743619474
 20
-189.0983087785837
 30
0.0
 10
-10.1577931428225
 20
-188.8105305135563
 30
0.0
  0
SPLINE
  5
5CF
330
5A1
100
AcDbEntity
  8
0
  6
Continuous
 62
     7
370
    25
100
AcDbSpline
210
0.0
220
0.0
230
1.0
 70
     8
 71
     3
 72
    20
 73
    16
 74
     0
 42
0.000000001
 43
0.00000001
 40
0.0
 40
0.0
 40
0.0
 40
0.0
 40
0.0005332443687896
 40
0.0840752270577933
 40
0.1669550192524089
 40
0.2508425544190961
 40
0.3335619607640303
 40
0.4173339965792161
 40
0.5005332443687899
 40
0.58373249215836
 40
0.6675045279735468
 40
0.7502239343184818
 40
0.8341114694851682
 40
0.916991261679784
 40
1.0
 40
1.0
 40
1.0
 40
1.0
 10
10.15779314282249
 20
-189.8376750404069
 30
0.0
 10
10.15852824711799
 20
-189.8398687933727
 30
0.0
 10
10.27443019409164
 20
-190.1857520122265
 30
0.0
 10
9.869035752615597
 20
-190.8854746710601
 30
0.0
 10
8.904269507059261
 20
-191.8551333944142
 30
0.0
 10
7.252313584312422
 20
-192.704551702106
 30
0.0
 10
5.123144111898251
 20
-193.371558572487
 30
0.0
 10
2.644579670916056
 20
-193.8257307272375
 30
0.0
 10
-0.0171961608939931
 20
-194.0342924180758
 30
0.0
 10
-2.678496064826468
 20
-193.9921544188008
 30
0.0
 10
-5.151488942087711
 20
-193.7107673475828
 30
0.0
 10
-7.282851561225614
 20
-193.2058453301605
 30
0.0
 10
-8.898740155054911
 20
-192.5321803580962
 30
0.0
 10
-9.96011843221107
 20
-191.727295210957
 30
0.0
 10
-10.09186743619474
 20
-191.1521857168775
 30
0.0
 10
-10.15779314282249
 20
-190.8644074518501
 30
0.0
  0
SPLINE
  5
5D0
330
5A1
100
AcDbEntity
  8
0
  6
Continuous
 62
     7
370
    25
100
AcDbSpline
210
0.0
220
0.0
230
1.0
 70
     8
 71
     3
 72
    20
 73
    16
 74
     0
 42
0.000000001
 43
0.00000001
 40
0.0
 40
0.0
 40
0.0
 40
0.0
 40
0.0005596838049167
 40
0.0882438629138226
 40
0.1752330186578857
 40
0.2632798835011907
 40
0.3501007011101351
 40
0.4380263398884362
 40
0.525350790542963
 40
0.6126752411974858
 40
0.7006008799757878
 40
0.7874216975847331
 40
0.8754685624280374
 40
0.9624577181721007
 40
0.9999999999999999
 40
0.9999999999999999
 40
0.9999999999999999
 40
0.9999999999999999
 10
10.1577931428225
 20
-191.8915519787007
 30
0.0
 10
10.15852824711782
 20
-191.8937457316666
 30
0.0
 10
10.27443019406395
 20
-192.2396289505195
 30
0.0
 10
9.869035778323903
 20
-192.9393516100052
 30
0.0
 10
8.904269417298897
 20
-193.9090103304343
 30
0.0
 10
7.252313920330031
 20
-194.7584286489115
 30
0.0
 10
5.123142871542294
 20
-195.4254354793613
 30
0.0
 10
2.644584353993886
 20
-195.8796077841587
 30
0.0
 10
-0.0172134986420932
 20
-196.0881689171859
 30
0.0
 10
-2.678431158187274
 20
-196.0460330012494
 30
0.0
 10
-5.15173174057552
 20
-195.7646381355306
 30
0.0
 10
-7.281952967311341
 20
-195.2597450308021
 30
0.0
 10
-8.902130587429633
 20
-194.5859714131009
 30
0.0
 10
-9.749896720488737
 20
-193.9336396896711
 30
0.0
 10
-9.978899258850966
 20
-193.5301051222729
 30
0.0
 10
-10.04793626671118
 20
-193.4084522388569
 30
0.0
  0
SPLINE
  5
5D1
330
5A1
100
AcDbEntity
  8
0
  6
Continuous
 62
     7
370
    25
100
AcDbSpline
210
0.0
220
0.0
230
1.0
 70
     8
 71
     3
 72
    10
 73
     6
 74
     0
 42
0.000000001
 43
0.00000001
 40
0.0
 40
0.0
 40
0.0
 40
0.0
 40
0.3340199236807285
 40
0.6703131079217313
 40
0.9999999999999999
 40
0.9999999999999999
 40
0.9999999999999999
 40
0.9999999999999999
 10
0.0078006693101634
 20
-196.201752915359
 30
0.0
 10
0.8154240711577572
 20
-196.1506784490902
 30
0.0
 10
2.436167368615185
 20
-196.0481819158209
 30
0.0
 10
4.719068563268723
 20
-195.6216270630527
 30
0.0
 10
5.947443129311234
 20
-195.190323500923
 30
0.0
 10
6.555537886777222
 20
-194.9768109109868
 30
0.0
  0
SPLINE
  5
5D2
330
5A1
100
AcDbEntity
  8
0
  6
Continuous
 62
     7
370
    25
100
AcDbSpline
210
0.0
220
0.0
230
1.0
 70
     8
 71
     3
 72
    15
 73
    11
 74
     0
 42
0.000000001
 43
0.00000001
 40
0.0
 40
0.0
 40
0.0
 40
0.0
 40
0.072884268723087
 40
0.2266365109978052
 40
0.3823462146883482
 40
0.5369907627547079
 40
0.5374878347276217
 40
0.6919761128733098
 40
0.8475158016829588
 40
1.0
 40
1.0
 40
1.0
 40
1.0
 10
-7.264686575240917
 20
-193.1461901270443
 30
0.0
 10
-7.043268336699161
 20
-193.2440914747117
 30
0.0
 10
-6.354759582566765
 20
-193.548519580338
 30
0.0
 10
-4.684053989439094
 20
-193.9026911554302
 30
0.0
 10
-2.442193236142074
 20
-194.1581215337125
 30
0.0
 10
-0.8053296255584562
 20
-194.1756340977552
 30
0.0
 10
0.8123236994588695
 20
-194.1204125185535
 30
0.0
 10
2.436400251820349
 20
-193.9834237459297
 30
0.0
 10
4.719011513908881
 20
-193.5704156982444
 30
0.0
 10
5.947424239032925
 20
-193.137329191727
 30
0.0
 10
6.555537886777228
 20
-192.9229339726929
 30
0.0
  0
SPLINE
  5
5D3
330
5A1
100
AcDbEntity
  8
0
  6
Continuous
 62
     7
370
    25
100
AcDbSpline
210
0.0
220
0.0
230
1.0
 70
     8
 71
     3
 72
    15
 73
    11
 74
     0
 42
0.000000001
 43
0.00000001
 40
0.0
 40
0.0
 40
0.0
 40
0.0
 40
0.0728842687230878
 40
0.2266365109978057
 40
0.3823462146883486
 40
0.536990762754708
 40
0.5374878347276218
 40
0.6919761128733098
 40
0.8475158016829586
 40
1.0
 40
1.0
 40
1.0
 40
1.0
 10
-7.264686575240922
 20
-191.0923131887504
 30
0.0
 10
-7.043268336699165
 20
-191.1902145364178
 30
0.0
 10
-6.35475958256677
 20
-191.4946426420441
 30
0.0
 10
-4.684053989439093
 20
-191.8488142171366
 30
0.0
 10
-2.442193236142077
 20
-192.1042445954177
 30
0.0
 10
-0.805329625558451
 20
-192.1217571594634
 30
0.0
 10
0.8123236994588643
 20
-192.0665355802576
 30
0.0
 10
2.436400251820351
 20
-191.9295468076369
 30
0.0
 10
4.719011513908884
 20
-191.5165387599503
 30
0.0
 10
5.947424239032925
 20
-191.083452253433
 30
0.0
 10
6.555537886777228
 20
-190.869057034399
 30
0.0
  0
SPLINE
  5
5D4
330
5A1
100
AcDbEntity
  8
0
  6
Continuous
 62
     7
370
    25
100
AcDbSpline
210
0.0
220
0.0
230
1.0
 70
     8
 71
     3
 72
    15
 73
    11
 74
     0
 42
0.000000001
 43
0.00000001
 40
0.0
 40
0.0
 40
0.0
 40
0.0
 40
0.0728842687230855
 40
0.226636510997804
 40
0.3823462146883473
 40
0.5369907627547073
 40
0.5374878347276211
 40
0.6919761128733095
 40
0.8475158016829587
 40
1.0
 40
1.0
 40
1.0
 40
1.0
 10
-7.264686575240903
 20
-189.0384362504566
 30
0.0
 10
-7.043268336699152
 20
-189.136337598124
 30
0.0
 10
-6.354759582566759
 20
-189.4407657037503
 30
0.0
 10
-4.684053989439096
 20
-189.7949372788424
 30
0.0
 10
-2.442193236142071
 20
-190.050367657125
 30
0.0
 10
-0.8053296255584665
 20
-190.0678802211671
 30
0.0
 10
0.8123236994588782
 20
-190.0126586419661
 30
0.0
 10
2.436400251820344
 20
-189.8756698693418
 30
0.0
 10
4.719011513908883
 20
-189.4626618216568
 30
0.0
 10
5.947424239032923
 20
-189.0295753151393
 30
0.0
 10
6.555537886777228
 20
-188.8151800961052
 30
0.0
  0
SPLINE
  5
5D5
330
5A1
100
AcDbEntity
  8
0
  6
Continuous
 62
     7
370
    25
100
AcDbSpline
210
0.0
220
0.0
230
1.0
 70
     8
 71
     3
 72
    13
 73
     9
 74
     0
 42
0.000000001
 43
0.00000001
 40
0.0
 40
0.0
 40
0.0
 40
0.0
 40
0.0706528314784541
 40
0.2593460820090685
 40
0.4536076093877605
 40
0.6396061124604455
 40
0.8312925891483706
 40
1.0
 40
1.0
 40
1.0
 40
1.0
 10
-7.713796193002507
 20
-195.0423902766865
 30
0.0
 10
-7.584854505388162
 20
-195.099280733506
 30
0.0
 10
-7.111546914019861
 20
-195.3081091239765
 30
0.0
 10
-6.067257476914762
 20
-195.6003460738043
 30
0.0
 10
-4.649929113141008
 20
-195.9025116026663
 30
0.0
 10
-3.087389155254755
 20
-196.1052326922853
 30
0.0
 10
-1.524649439745398
 20
-196.2120383244316
 30
0.0
 10
-0.4808310746378854
 20
-196.2050324853383
 30
0.0
 10
0.0078006693101634
 20
-196.201752915359
 30
0.0
  0
SPLINE
  5
5D6
330
5A1
100
AcDbEntity
  8
0
  6
Continuous
 62
     7
370
    25
100
AcDbSpline
210
0.0
220
0.0
230
1.0
 70
     8
 71
     3
 72
    26
 73
    22
 74
     0
 42
0.000000001
 43
0.00000001
 40
0.0
 40
0.0
 40
0.0
 40
0.0
 40
0.1250000000000006
 40
0.1250000000000006
 40
0.1875000000000008
 40
0.1875000000000008
 40
0.250000000000001
 40
0.250000000000001
 40
0.375000000000001
 40
0.375000000000001
 40
0.4375000000000004
 40
0.4375000000000004
 40
0.4999999999999998
 40
0.4999999999999998
 40
0.625
 40
0.625
 40
0.75
 40
0.75
 40
0.8750000000000001
 40
0.8750000000000001
 40
1.0
 40
1.0
 40
1.0
 40
1.0
 10
0.0078006693107376
 20
-196.201752915359
 30
0.0
 10
0.5891301745807598
 20
-196.2147187571697
 30
0.0
 10
1.16483001110026
 20
-196.2084344027641
 30
0.0
 10
2.020275341152603
 20
-196.1712954473709
 30
0.0
 10
2.304064309965978
 20
-196.1542671825282
 30
0.0
 10
2.868876902663365
 20
-196.1107547798861
 30
0.0
 10
3.151319459448142
 20
-196.084092789734
 30
0.0
 10
3.980922748214266
 20
-195.9909321288883
 30
0.0
 10
4.511437062719041
 20
-195.9115435379537
 30
0.0
 10
5.274175476635353
 20
-195.7671504420537
 30
0.0
 10
5.52284623817585
 20
-195.714747509308
 30
0.0
 10
6.008975758075873
 20
-195.6013509117462
 30
0.0
 10
6.246164657821248
 20
-195.5404940574892
 30
0.0
 10
6.927697701115478
 20
-195.3488458053469
 30
0.0
 10
7.346968620496177
 20
-195.2079918054465
 30
0.0
 10
8.115791175342778
 20
-194.9002745357874
 30
0.0
 10
8.46701659451523
 20
-194.7319485430423
 30
0.0
 10
9.073003208853015
 20
-194.3809112914218
 30
0.0
 10
9.331286833378263
 20
-194.1971637211744
 30
0.0
 10
9.758109300897946
 20
-193.8131507980198
 30
0.0
 10
9.92762348123194
 20
-193.6121640795881
 30
0.0
 10
10.04712530477361
 20
-193.410389179166
 30
0.0
  0
LINE
  5
5D7
330
5A1
100
AcDbEntity
  8
0
  6
Continuous
 62
     7
370
    25
100
AcDbLine
 10
-10.16
 20
-191.7928210531
 30
0.0
 11
-10.16
 21
-192.8691618421
 31
0.0
  0
LINE
  5
5D8
330
5A1
100
AcDbEntity
  8
0
  6
Continuous
 62
     7
370
    25
100
AcDbLine
 10
-10.16
 20
-189.7389441148
 30
0.0
 11
-10.16
 21
-190.8645104807
 31
0.0
  0
LINE
  5
5D9
330
5A1
100
AcDbEntity
  8
0
  6
Continuous
 62
     7
370
    25
100
AcDbLine
 10
-10.16
 20
-187.7877700866
 30
0.0
 11
-10.16
 21
-188.8106335424
 31
0.0
  0
LINE
  5
5DA
330
5A1
100
AcDbEntity
  8
0
  6
Continuous
 62
     7
370
    25
100
AcDbLine
 10
10.16
 20
-189.8375720116
 30
0.0
 11
10.16
 21
-188.7120120234
 31
0.0
  0
LINE
  5
5DB
330
5A1
100
AcDbEntity
  8
0
  6
Continuous
 62
     7
370
    25
100
AcDbLine
 10
10.16
 20
-191.8914489498
 30
0.0
 11
10.16
 21
-190.7658889617
 31
0.0
  0
LINE
  5
5DC
330
5A1
100
AcDbEntity
  8
0
  6
Continuous
 62
     7
370
    25
100
AcDbLine
 10
10.16
 20
-192.8691618421
 30
0.0
 11
10.16
 21
-192.8197659
 31
0.0
  0
LINE
  5
5DD
330
5A1
100
AcDbEntity
  8
0
  6
Continuous
 62
     7
370
    25
100
AcDbLine
 10
-7.9738533757
 20
-194.9560699921
 30
0.0
 11
-7.720529077
 21
-195.0586498829
 31
0.0
  0
LINE
  5
5DE
330
5A1
100
AcDbEntity
  8
0
  6
Continuous
 62
     7
370
    25
100
AcDbLine
 10
-29.4999999993
 20
57.5
 30
0.0
 11
29.4999999993
 21
57.5
 31
0.0
  0
LINE
  5
5DF
330
5A1
100
AcDbEntity
  8
0
  6
Continuous
 62
     7
370
    25
100
AcDbLine
 10
29.4999999847
 20
-57.5
 30
0.0
 11
-29.5000000146
 21
-57.5
 31
0.0
  0
LINE
  5
5E0
330
5A1
100
AcDbEntity
  8
0
  6
Continuous
 62
     7
370
    25
100
AcDbLine
 10
39.5
 20
47.5
 30
0.0
 11
39.5
 21
30.1101577058
 31
0.0
  0
LINE
  5
5E1
330
5A1
100
AcDbEntity
  8
0
  6
Continuous
 62
     7
370
    25
100
AcDbLine
 10
-39.5
 20
30.1101577058
 30
0.0
 11
-39.5
 21
47.5
 31
0.0
  0
LINE
  5
5E2
330
5A1
100
AcDbEntity
  8
0
  6
Continuous
 62
     7
370
    25
100
AcDbLine
 10
-15.0
 20
-77.7466037503
 30
0.0
 11
-15.0
 21
-186.0419332239
 31
0.0
  0
LINE
  5
5E3
330
5A1
100
AcDbEntity
  8
0
  6
Continuous
 62
     7
370
    25
100
AcDbLine
 10
15.0
 20
-77.7466037503
 30
0.0
 11
15.0
 21
-186.0419332239
 31
0.0
  0
ARC
  5
5E4
330
5A1
100
AcDbEntity
  8
0
  6
Continuous
 62
     7
370
    25
100
AcDbCircle
 10
29.5
 20
47.5
 30
0.0
 40
10.00000000000029
100
AcDbArc
 50
0.0
 51
24.7252761901
  0
ARC
  5
5E5
330
5A1
100
AcDbEntity
  8
0
  6
Continuous
 62
     7
370
    25
100
AcDbCircle
 10
-29.5
 20
47.5
 30
0.0
 40
9.999999999999773
100
AcDbArc
 50
155.2747238099
 51
180.0
  0
VIEWPORT
  5
5EA
330
5A1
100
AcDbEntity
  8
0
100
AcDbViewport
 10
0.0
 20
0.0
 30
0.0
 40
205.6
 41
156.0
 68
     1
 69
     1
 12
0.0
 22
69.3536295787
 13
0.0
 23
0.0
 14
10.0
 24
10.0
 15
10.0
 25
10.0
 16
0.0
 26
0.0
 36
1.0
 17
0.0
 27
0.0
 37
0.0
 42
50.0
 43
0.0
 44
0.0
 45
258.7814043406
 50
0.0
 51
0.0
 72
   100
 90
   557152
  1

281
     0
 71
     1
 74
     0
110
0.0
120
0.0
130
0.0
111
1.0
121
0.0
131
0.0
112
0.0
122
1.0
132
0.0
 79
     0
146
0.0
  0
ENDBLK
  5
5A4
330
5A1
100
AcDbEntity
  8
0
100
AcDbBlockEnd
  0
ENDSEC
  0
SECTION
  2
ENTITIES
  0
SPLINE
  5
7D
330
1F
100
AcDbEntity
  8
0
  6
Continuous
 62
     7
370
    25
100
AcDbSpline
210
0.0
220
0.0
230
1.0
 70
     8
 71
     3
 72
     9
 73
     5
 74
     0
 42
0.000000001
 43
0.00000001
 40
0.0
 40
0.0
 40
0.0
 40
0.0
 40
0.4999570243828258
 40
1.0
 40
1.0
 40
1.0
 40
1.0
 10
6.537061099424035
 20
187.6725436380643
 30
0.0
 10
6.643027805247365
 20
187.7153604147179
 30
0.0
 10
6.854979434398174
 20
187.8010013289674
 30
0.0
 10
7.068788249660493
 20
187.8873245720282
 30
0.0
 10
7.175701845857446
 20
187.9304899033532
 30
0.0
  0
SPLINE
  5
7E
330
1F
100
AcDbEntity
  8
0
  6
Continuous
 62
     7
370
    25
100
AcDbSpline
210
0.0
220
0.0
230
1.0
 70
     8
 71
     3
 72
     9
 73
     5
 74
     0
 42
0.000000001
 43
0.00000001
 40
0.0
 40
0.0
 40
0.0
 40
0.0
 40
0.4999570243828443
 40
1.0
 40
1.0
 40
1.0
 40
1.0
 10
6.537061099424035
 20
185.6186666997704
 30
0.0
 10
6.643027805247358
 20
185.6614834764241
 30
0.0
 10
6.854979434398143
 20
185.7471243906736
 30
0.0
 10
7.068788249660487
 20
185.8334476337344
 30
0.0
 10
7.175701845857446
 20
185.8766129650594
 30
0.0
  0
SPLINE
  5
7F
330
1F
100
AcDbEntity
  8
0
  6
Continuous
 62
     7
370
    25
100
AcDbSpline
210
0.0
220
0.0
230
1.0
 70
     8
 71
     3
 72
     9
 73
     5
 74
     0
 42
0.000000001
 43
0.00000001
 40
0.0
 40
0.0
 40
0.0
 40
0.0
 40
0.4999570243828366
 40
1.0
 40
1.0
 40
1.0
 40
1.0
 10
6.537061099424035
 20
183.5647897614766
 30
0.0
 10
6.643027805247334
 20
183.6076065381302
 30
0.0
 10
6.85497943439808
 20
183.6932474523798
 30
0.0
 10
7.068788249660462
 20
183.7795706954406
 30
0.0
 10
7.175701845857446
 20
183.8227360267655
 30
0.0
  0
SPLINE
  5
80
330
1F
100
AcDbEntity
  8
0
  6
Continuous
 62
     7
370
    25
100
AcDbSpline
210
0.0
220
0.0
230
1.0
 70
     8
 71
     3
 72
     9
 73
     5
 74
     0
 42
0.000000001
 43
0.00000001
 40
0.0
 40
0.0
 40
0.0
 40
0.0
 40
0.5000552058656885
 40
1.0
 40
1.0
 40
1.0
 40
1.0
 10
-7.978952352581774
 20
187.7033086024304
 30
0.0
 10
-7.872120516136559
 20
187.6601713090431
 30
0.0
 10
-7.658480431617751
 20
187.5739062469432
 30
0.0
 10
-7.442794124376715
 20
187.4867488475151
 30
0.0
 10
-7.334962877905506
 20
187.4431749594008
 30
0.0
  0
SPLINE
  5
81
330
1F
100
AcDbEntity
  8
0
  6
Continuous
 62
     7
370
    25
100
AcDbSpline
210
0.0
220
0.0
230
1.0
 70
     8
 71
     3
 72
     9
 73
     5
 74
     0
 42
0.000000001
 43
0.00000001
 40
0.0
 40
0.0
 40
0.0
 40
0.0
 40
0.5000552058657193
 40
1.0
 40
1.0
 40
1.0
 40
1.0
 10
-7.978952352581774
 20
185.6494316641366
 30
0.0
 10
-7.872120516136583
 20
185.6062943707492
 30
0.0
 10
-7.658480431617836
 20
185.5200293086493
 30
0.0
 10
-7.44279412437674
 20
185.4328719092213
 30
0.0
 10
-7.334962877905506
 20
185.3892980211069
 30
0.0
  0
SPLINE
  5
82
330
1F
100
AcDbEntity
  8
0
  6
Continuous
 62
     7
370
    25
100
AcDbSpline
210
0.0
220
0.0
230
1.0
 70
     8
 71
     3
 72
     9
 73
     5
 74
     0
 42
0.000000001
 43
0.00000001
 40
0.0
 40
0.0
 40
0.0
 40
0.0
 40
0.5000552058657092
 40
1.0
 40
1.0
 40
1.0
 40
1.0
 10
-7.978952352581774
 20
183.5955547258427
 30
0.0
 10
-7.872120516136574
 20
183.5524174324553
 30
0.0
 10
-7.658480431617812
 20
183.4661523703555
 30
0.0
 10
-7.442794124376731
 20
183.3789949709274
 30
0.0
 10
-7.334962877905506
 20
183.3354210828131
 30
0.0
  0
SPLINE
  5
83
330
1F
100
AcDbEntity
  8
0
  6
Continuous
 62
     7
370
    25
100
AcDbSpline
210
0.0
220
0.0
230
1.0
 70
     8
 71
     3
 72
     9
 73
     5
 74
     0
 42
0.000000001
 43
0.00000001
 40
0.0
 40
0.0
 40
0.0
 40
0.0
 40
0.5000552058656753
 40
1.0
 40
1.0
 40
1.0
 40
1.0
 10
-7.978952352581774
 20
189.7571855407243
 30
0.0
 10
-7.872120516136552
 20
189.7140482473369
 30
0.0
 10
-7.658480431617726
 20
189.627783185237
 30
0.0
 10
-7.442794124376707
 20
189.540625785809
 30
0.0
 10
-7.334962877905506
 20
189.4970518976946
 30
0.0
  0
SPLINE
  5
84
330
1F
100
AcDbEntity
  8
0
  6
Continuous
 62
     7
370
    25
100
AcDbSpline
210
0.0
220
0.0
230
1.0
 70
     8
 71
     3
 72
     9
 73
     5
 74
     0
 42
0.000000001
 43
0.00000001
 40
0.0
 40
0.0
 40
0.0
 40
0.0
 40
0.499957024382836
 40
1.0
 40
1.0
 40
1.0
 40
1.0
 10
6.537061099424035
 20
189.7264205763581
 30
0.0
 10
6.643027805247382
 20
189.7692373530118
 30
0.0
 10
6.854979434398222
 20
189.8548782672614
 30
0.0
 10
7.068788249660511
 20
189.9412015103221
 30
0.0
 10
7.175701845857446
 20
189.9843668416471
 30
0.0
  0
SPLINE
  5
86
330
1F
100
AcDbEntity
  8
0
  6
Continuous
 62
     7
370
    25
100
AcDbSpline
210
0.0
220
0.0
230
1.0
 70
     8
 71
     3
 72
    20
 73
    16
 74
     0
 42
0.000000001
 43
0.00000001
 40
0.0
 40
0.0
 40
0.0
 40
0.0
 40
0.0957727107245673
 40
0.1730473074675233
 40
0.2320742536655665
 40
0.2733304501576118
 40
0.3022753311896505
 40
0.3318659156545683
 40
0.3986793631503314
 40
0.479781138389085
 40
0.5710524749024528
 40
0.7562733969571723
 40
0.850643688685025
 40
0.9446061828459843
 40
1.0
 40
1.0
 40
1.0
 40
1.0
 10
-15.00000000000001
 20
76.49231592685513
 30
0.0
 10
-15.00223422957129
 20
75.94661492024643
 30
0.0
 10
-15.00627115625582
 20
74.96061286223299
 30
0.0
 10
-15.0482102674999
 20
73.60191082873173
 30
0.0
 10
-15.10586610837284
 20
72.55869723554694
 30
0.0
 10
-15.16617102698903
 20
71.79773844348594
 30
0.0
 10
-15.21992698115954
 20
71.25567937120616
 30
0.0
 10
-15.30245924872031
 20
70.52421673479964
 30
0.0
 10
-15.4698892331758
 20
69.48466417225804
 30
0.0
 10
-15.80294445162163
 20
68.168792600684
 30
0.0
 10
-16.46976345868192
 20
66.28853487118361
 30
0.0
 10
-17.49181329967183
 20
64.39313902899742
 30
0.0
 10
-18.82425874930816
 20
62.68267462428307
 30
0.0
 10
-19.80163243516238
 20
61.64222708656594
 30
0.0
 10
-20.47761729083053
 20
61.09433924111758
 30
0.0
 10
-20.72832903621367
 20
60.89113658523737
 30
0.0
  0
SPLINE
  5
87
330
1F
100
AcDbEntity
  8
0
  6
Continuous
 62
     7
370
    25
100
AcDbSpline
210
0.0
220
0.0
230
1.0
 70
     8
 71
     3
 72
    27
 73
    23
 74
     0
 42
0.000000001
 43
0.00000001
 40
0.0
 40
0.0
 40
0.0
 40
0.0
 40
0.067532525927787
 40
0.1254479511031323
 40
0.1739106009385644
 40
0.2131184504635243
 40
0.2455939052448374
 40
0.2790062134869779
 40
0.3321978668854685
 40
0.3892642327317102
 40
0.44999413458154
 40
0.5109899562987906
 40
0.6307088183169134
 40
0.6896945182543089
 40
0.7421368785858868
 40
0.7853770099996467
 40
0.8045276040895253
 40
0.8232492250955485
 40
0.8499277919528969
 40
0.8880979206973509
 40
0.938068002144671
 40
1.0
 40
1.0
 40
1.0
 40
1.0
 10
29.49999999978645
 20
57.4999999999082
 30
0.0
 10
28.88703515203249
 20
57.55178974030841
 30
0.0
 10
27.74839590831157
 20
57.64799400236012
 30
0.0
 10
26.20273289280307
 20
58.01128598820592
 30
0.0
 10
24.94621961195832
 20
58.42587933097951
 30
0.0
 10
23.94639797449036
 20
58.84858099825184
 30
0.0
 10
23.11777968039748
 20
59.26237459579789
 30
0.0
 10
22.19611288918648
 20
59.79230783281113
 30
0.0
 10
21.13012688725752
 20
60.52051849863435
 30
0.0
 10
19.94744076989636
 20
61.51110801199443
 30
0.0
 10
18.82556022120495
 20
62.67460248197024
 30
0.0
 10
17.49705425786709
 20
64.38947586780463
 30
0.0
 10
16.47206792859006
 20
66.28230848584577
 30
0.0
 10
15.80384158776685
 20
68.16578288874406
 30
0.0
 10
15.47004833906434
 20
69.4837298160814
 30
0.0
 10
15.30251550160575
 20
70.52381538429096
 30
0.0
 10
15.21994481206871
 20
71.25549856874552
 30
0.0
 10
15.16617505349311
 20
71.79769174282754
 30
0.0
 10
15.10586567223047
 20
72.55870087898639
 30
0.0
 10
15.04821044546284
 20
73.60190933427263
 30
0.0
 10
15.0062710929633
 20
74.96061338163018
 30
0.0
 10
15.0022342070226
 20
75.94661509498692
 30
0.0
 10
15.0
 20
76.492315911071
 30
0.0
  0
SPLINE
  5
89
330
1F
100
AcDbEntity
  8
0
  6
Continuous
 62
     7
370
    25
100
AcDbSpline
210
0.0
220
0.0
230
1.0
 70
     8
 71
     3
 72
    56
 73
    52
 74
     0
 42
0.000000001
 43
0.00000001
 40
0.0
 40
0.0
 40
0.0
 40
0.0
 40
0.0624999999999996
 40
0.0624999999999996
 40
0.0937500000000001
 40
0.0937500000000001
 40
0.1250000000000005
 40
0.1250000000000005
 40
0.1875000000000013
 40
0.1875000000000013
 40
0.2187500000000017
 40
0.2187500000000017
 40
0.2500000000000021
 40
0.2500000000000021
 40
0.2812500000000026
 40
0.2812500000000026
 40
0.3125000000000029
 40
0.3125000000000029
 40
0.3750000000000029
 40
0.3750000000000029
 40
0.4062500000000032
 40
0.4062500000000032
 40
0.4375000000000034
 40
0.4375000000000034
 40
0.5000000000000039
 40
0.5000000000000039
 40
0.5312500000000041
 40
0.5312500000000041
 40
0.5625000000000044
 40
0.5625000000000044
 40
0.5937500000000047
 40
0.5937500000000047
 40
0.6250000000000049
 40
0.6250000000000049
 40
0.6875000000000054
 40
0.6875000000000054
 40
0.7187500000000053
 40
0.7187500000000053
 40
0.7500000000000051
 40
0.7500000000000051
 40
0.8125000000000048
 40
0.8125000000000048
 40
0.8437500000000039
 40
0.8437500000000039
 40
0.8750000000000031
 40
0.8750000000000031
 40
0.9062500000000024
 40
0.9062500000000024
 40
0.9375000000000017
 40
0.9375000000000017
 40
1.0
 40
1.0
 40
1.0
 40
1.0
 10
9.000000000000002
 20
90.28840797824381
 30
0.0
 10
9.000000000000002
 20
89.72310315895452
 30
0.0
 10
8.939541050096498
 20
89.15694157735228
 30
0.0
 10
8.763620333329412
 20
88.30755779116608
 30
0.0
 10
8.690657900444752
 20
88.02442589614256
 30
0.0
 10
8.51562859796369
 20
87.45857584103244
 30
0.0
 10
8.414245518699744
 20
87.17844554266941
 30
0.0
 10
8.073864529648315
 20
86.35692847393184
 30
0.0
 10
7.797701813299376
 20
85.82974647440054
 30
0.0
 10
7.309540040509703
 20
85.07141576498191
 30
0.0
 10
7.134665532086546
 20
84.82480069866476
 30
0.0
 10
6.766700434266415
 20
84.35219309414653
 30
0.0
 10
6.572856240182595
 20
84.12498675119188
 30
0.0
 10
6.165340127093057
 20
83.68889196243305
 30
0.0
 10
5.951669109472226
 20
83.48000262420112
 30
0.0
 10
5.50371792538943
 20
83.08128859938049
 30
0.0
 10
5.268068940063722
 20
82.89053157768879
 30
0.0
 10
4.540848645738385
 20
82.35803763177648
 30
0.0
 10
4.028909339822206
 20
82.05441779474073
 30
0.0
 10
3.218441892021412
 20
81.67908106118126
 30
0.0
 10
2.941145004381545
 20
81.56741014301942
 30
0.0
 10
2.371297628958503
 20
81.3727169430819
 30
0.0
 10
2.079672897205884
 20
81.29027894447795
 30
0.0
 10
1.204344059520855
 20
81.09343516332966
 30
0.0
 10
0.6130481540081133
 20
81.02644735635498
 30
0.0
 10
-0.2858423429892096
 20
81.02491584016681
 30
0.0
 10
-0.5894268970447689
 20
81.04132016805903
 30
0.0
 10
-1.187422695255905
 20
81.10725384027512
 30
0.0
 10
-1.482513505469025
 20
81.15653584892439
 30
0.0
 10
-2.06518434399445
 20
81.28650047814722
 30
0.0
 10
-2.352763693825878
 20
81.36718583786867
 30
0.0
 10
-2.920508987311387
 20
81.55961194846829
 30
0.0
 10
-3.202197497234625
 20
81.67211951490783
 30
0.0
 10
-4.022138896962445
 20
82.05019887841537
 30
0.0
 10
-4.536095707204256
 20
82.35511734710963
 30
0.0
 10
-5.261984180327385
 20
82.88580100583216
 30
0.0
 10
-5.497394297082744
 20
83.0759488232042
 30
0.0
 10
-5.947811412896311
 20
83.47628662608295
 30
0.0
 10
-6.162207914100734
 20
83.68572232796242
 30
0.0
 10
-6.774515851290868
 20
84.34042777264412
 30
0.0
 10
-7.14189278235524
 20
84.81180222566103
 30
0.0
 10
-7.631468603168708
 20
85.57111203195511
 30
0.0
 10
-7.78302151786174
 20
85.83119607221234
 30
0.0
 10
-8.059509442124414
 20
86.35812047954741
 30
0.0
 10
-8.18509084396741
 20
86.62594854174296
 30
0.0
 10
-8.410974244446445
 20
87.16999116632883
 30
0.0
 10
-8.511278443095426
 20
87.4462052714132
 30
0.0
 10
-8.685764333541835
 20
88.0070001667753
 30
0.0
 10
-8.760247717991898
 20
88.29312362220092
 30
0.0
 10
-8.939441348796427
 20
89.15286539395017
 30
0.0
 10
-9.000000000000005
 20
89.72273889112817
 30
0.0
 10
-9.0
 20
90.28840797824381
 30
0.0
  0
SPLINE
  5
8B
330
1F
100
AcDbEntity
  8
0
  6
Continuous
 62
     7
370
    25
100
AcDbSpline
210
0.0
220
0.0
230
1.0
 70
     8
 71
     3
 72
    56
 73
    52
 74
     0
 42
0.000000001
 43
0.00000001
 40
0.0
 40
0.0
 40
0.0
 40
0.0
 40
0.0625000000000006
 40
0.0625000000000006
 40
0.0937500000000015
 40
0.0937500000000015
 40
0.1250000000000025
 40
0.1250000000000025
 40
0.1875000000000029
 40
0.1875000000000029
 40
0.218750000000003
 40
0.218750000000003
 40
0.250000000000003
 40
0.250000000000003
 40
0.281250000000003
 40
0.281250000000003
 40
0.3125000000000031
 40
0.3125000000000031
 40
0.375000000000003
 40
0.375000000000003
 40
0.406250000000003
 40
0.406250000000003
 40
0.4375000000000029
 40
0.4375000000000029
 40
0.5000000000000029
 40
0.5000000000000029
 40
0.5312500000000029
 40
0.5312500000000029
 40
0.5625000000000028
 40
0.5625000000000028
 40
0.5937500000000028
 40
0.5937500000000028
 40
0.6250000000000027
 40
0.6250000000000027
 40
0.6875000000000029
 40
0.6875000000000029
 40
0.7187500000000029
 40
0.7187500000000029
 40
0.750000000000003
 40
0.750000000000003
 40
0.8125000000000023
 40
0.8125000000000023
 40
0.8437500000000022
 40
0.8437500000000022
 40
0.875000000000002
 40
0.875000000000002
 40
0.9062500000000019
 40
0.9062500000000019
 40
0.9375000000000018
 40
0.9375000000000018
 40
1.0
 40
1.0
 40
1.0
 40
1.0
 10
-8.999999999999996
 20
107.0928556551935
 30
0.0
 10
-8.999999999999995
 20
107.6581604744827
 30
0.0
 10
-8.93954105009649
 20
108.1991174790304
 30
0.0
 10
-8.763620333329404
 20
108.9779245688864
 30
0.0
 10
-8.69065790044475
 20
109.2320756295186
 30
0.0
 10
-8.515628597963687
 20
109.7299708688917
 30
0.0
 10
-8.414245518699735
 20
109.9714082297963
 30
0.0
 10
-8.073864529648315
 20
110.6666900013235
 30
0.0
 10
-7.797701813299367
 20
111.0956980410884
 30
0.0
 10
-7.309540040509698
 20
111.6950437499178
 30
0.0
 10
-7.134665532086538
 20
111.8868166614726
 30
0.0
 10
-6.766700434266412
 20
112.2494689464803
 30
0.0
 10
-6.572856240182594
 20
112.4213096665097
 30
0.0
 10
-6.16534012709305
 20
112.747342933987
 30
0.0
 10
-5.951669109472227
 20
112.9015330951509
 30
0.0
 10
-5.503717925389433
 20
113.1928965239195
 30
0.0
 10
-5.268068940063722
 20
113.3307305257892
 30
0.0
 10
-4.540848645738385
 20
113.7122381427484
 30
0.0
 10
-4.028909339822207
 20
113.9252970205716
 30
0.0
 10
-3.218441892021416
 20
114.1862872214446
 30
0.0
 10
-2.941145004381538
 20
114.2634253713823
 30
0.0
 10
-2.371297628958494
 20
114.3973957952075
 30
0.0
 10
-2.079672897205883
 20
114.4538254824133
 30
0.0
 10
-1.204344059520855
 20
114.5882623081096
 30
0.0
 10
-0.6130481540081115
 20
114.6336088321221
 30
0.0
 10
0.2858423429892096
 20
114.6346485535442
 30
0.0
 10
0.5894268970447637
 20
114.6235204109515
 30
0.0
 10
1.187422695255902
 20
114.5786937176843
 30
0.0
 10
1.482513505469027
 20
114.5451626037435
 30
0.0
 10
2.065184343994451
 20
114.4564101594565
 30
0.0
 10
2.352763693825876
 20
114.4011877027628
 30
0.0
 10
2.920508987311384
 20
114.2688045498098
 30
0.0
 10
3.202197497234629
 20
114.1911107115235
 30
0.0
 10
4.022138896962447
 20
113.9282638664124
 30
0.0
 10
4.536095707204248
 20
113.7142945461803
 30
0.0
 10
5.261984180327379
 20
113.3341373764976
 30
0.0
 10
5.49739429708274
 20
113.196774780958
 30
0.0
 10
5.947811412896308
 20
112.9042718838555
 30
0.0
 10
6.162207914100729
 20
112.7496943616005
 30
0.0
 10
6.774515851290866
 20
112.2602777483621
 30
0.0
 10
7.141892782355247
 20
111.9001265491628
 30
0.0
 10
7.631468603168711
 20
111.3001597250556
 30
0.0
 10
7.783021517861748
 20
111.0915085003376
 30
0.0
 10
8.059509442124416
 20
110.6612856434775
 30
0.0
 10
8.185090843967405
 20
110.4389376695195
 30
0.0
 10
8.410974244446441
 20
109.9786320140182
 30
0.0
 10
8.511278443095426
 20
109.7406766528783
 30
0.0
 10
8.685764333541838
 20
109.2475785326566
 30
0.0
 10
8.7602477179919
 20
108.9910139898669
 30
0.0
 10
8.939441348796425
 20
108.2031375428813
 30
0.0
 10
9.000000000000002
 20
107.6585247423091
 30
0.0
 10
9.000000000000002
 20
107.0928556551935
 30
0.0
  0
SPLINE
  5
8C
330
1F
100
AcDbEntity
  8
0
  6
Continuous
 62
     7
370
    25
100
AcDbSpline
210
0.0
220
0.0
230
1.0
 70
     8
 71
     3
 72
    11
 73
     7
 74
     0
 42
0.000000001
 43
0.00000001
 40
0.0
 40
0.0
 40
0.0
 40
0.0
 40
0.2582011885006334
 40
0.5249723745395984
 40
0.7829246313855058
 40
0.9999999999999999
 40
0.9999999999999999
 40
0.9999999999999999
 40
0.9999999999999999
 10
-8.999999999999998
 20
107.9372791223312
 30
0.0
 10
-8.980371145192139
 20
108.3551262306768
 30
0.0
 10
-8.940461931071892
 20
109.204689278533
 30
0.0
 10
-8.61581552031199
 20
110.365005625505
 30
0.0
 10
-8.160681658732816
 20
111.3736810065002
 30
0.0
 10
-7.738321611092608
 20
111.9268678710689
 30
0.0
 10
-7.54531396666209
 20
112.1796599953639
 30
0.0
  0
SPLINE
  5
8D
330
1F
100
AcDbEntity
  8
0
  6
Continuous
 62
     7
370
    25
100
AcDbSpline
210
0.0
220
0.0
230
1.0
 70
     8
 71
     3
 72
    10
 73
     6
 74
     0
 42
0.000000001
 43
0.00000001
 40
0.0
 40
0.0
 40
0.0
 40
0.0
 40
0.2438034669766723
 40
0.5625055611794336
 40
1.0
 40
1.0
 40
1.0
 40
1.0
 10
7.528170816470416
 20
112.1879985701927
 30
0.0
 10
7.745586123224194
 20
111.903777617997
 30
0.0
 10
8.247208682784578
 20
111.2480204698468
 30
0.0
 10
8.83899935637032
 20
109.8573346654595
 30
0.0
 10
8.940992360756725
 20
108.6409902520616
 30
0.0
 10
8.999999999999998
 20
107.9372791223312
 30
0.0
  0
SPLINE
  5
90
330
1F
100
AcDbEntity
  8
0
  6
Continuous
 62
     7
370
    25
100
AcDbSpline
210
0.0
220
0.0
230
1.0
 70
     8
 71
     3
 72
    52
 73
    48
 74
     0
 42
0.000000001
 43
0.00000001
 40
0.0
 40
0.0
 40
0.0
 40
0.0
 40
0.0624999999999992
 40
0.0624999999999992
 40
0.1249999999999984
 40
0.1249999999999984
 40
0.1874999999999976
 40
0.1874999999999976
 40
0.2187499999999972
 40
0.2187499999999972
 40
0.2499999999999968
 40
0.2499999999999968
 40
0.2812499999999964
 40
0.2812499999999964
 40
0.312499999999996
 40
0.312499999999996
 40
0.3749999999999961
 40
0.3749999999999961
 40
0.4062499999999963
 40
0.4062499999999963
 40
0.4374999999999966
 40
0.4374999999999966
 40
0.4999999999999969
 40
0.4999999999999969
 40
0.531249999999997
 40
0.531249999999997
 40
0.5624999999999972
 40
0.5624999999999972
 40
0.5937499999999973
 40
0.5937499999999973
 40
0.6249999999999974
 40
0.6249999999999974
 40
0.6874999999999978
 40
0.6874999999999978
 40
0.7187499999999979
 40
0.7187499999999979
 40
0.7499999999999979
 40
0.7499999999999979
 40
0.8124999999999991
 40
0.8124999999999991
 40
0.8750000000000001
 40
0.8750000000000001
 40
0.9062500000000001
 40
0.9062500000000001
 40
0.9375
 40
0.9375
 40
1.0
 40
1.0
 40
1.0
 40
1.0
 10
9.499999999999998
 20
90.39526106146262
 30
0.0
 10
9.500000000000002
 20
89.7971022953694
 30
0.0
 10
9.435881157915357
 20
89.19736495528912
 30
0.0
 10
9.187499583306739
 20
87.99658486202496
 30
0.0
 10
8.999901901997703
 20
87.38961833093443
 30
0.0
 10
8.520716379937877
 20
86.22804100850432
 30
0.0
 10
8.229348659955987
 20
85.66865120255825
 30
0.0
 10
7.714440650835087
 20
84.86345212731348
 30
0.0
 10
7.530513174022601
 20
84.6022341118403
 30
0.0
 10
7.14315669929378
 20
84.10088935155636
 30
0.0
 10
6.939057668339226
 20
83.85969493021433
 30
0.0
 10
6.509814790566812
 20
83.3964319223076
 30
0.0
 10
6.284672276854222
 20
83.17436215883677
 30
0.0
 10
5.812409175429835
 20
82.75018282298007
 30
0.0
 10
5.563971491350885
 20
82.54721467534527
 30
0.0
 10
4.798436627629564
 20
81.98125958305488
 30
0.0
 10
4.258883764162471
 20
81.65779974098054
 30
0.0
 10
3.403232307203994
 20
81.25728492247856
 30
0.0
 10
3.110242746969458
 20
81.13799075318295
 30
0.0
 10
2.507564594448121
 20
80.92984304209233
 30
0.0
 10
2.19985125383843
 20
80.84191674069031
 30
0.0
 10
1.275137076501457
 20
80.63161059192929
 30
0.0
 10
0.6498219221496518
 20
80.55978884803095
 30
0.0
 10
-0.3018812613022858
 20
80.5580630367789
 30
0.0
 10
-0.6233115923033137
 20
80.57563097426289
 30
0.0
 10
-1.25538529009717
 20
80.64606183246661
 30
0.0
 10
-1.567346346939721
 20
80.69870610258658
 30
0.0
 10
-2.183427233170429
 20
80.83757538735209
 30
0.0
 10
-2.487546385152434
 20
80.92380315729872
 30
0.0
 10
-3.08804038894259
 20
81.12950823794445
 30
0.0
 10
-3.385869499062943
 20
81.24977945494456
 30
0.0
 10
-4.250532345370168
 20
81.65269244963606
 30
0.0
 10
-4.792696009609534
 20
81.97755869322664
 30
0.0
 10
-5.558700159040045
 20
82.5430503636848
 30
0.0
 10
-5.807206050821403
 20
82.74576495301577
 30
0.0
 10
-6.280890432867996
 20
83.17071467232563
 30
0.0
 10
-6.506501315339807
 20
83.39305465699421
 30
0.0
 10
-7.151223386235321
 20
84.08828260887923
 30
0.0
 10
-7.538624446240515
 20
84.58910238841143
 30
0.0
 10
-8.227812994535578
 20
85.66566778188515
 30
0.0
 10
-8.518647684986828
 20
86.22429917070822
 30
0.0
 10
-8.876522313800423
 20
87.08991391089721
 30
0.0
 10
-8.982636586651584
 20
87.38310826016505
 30
0.0
 10
-9.167443848033193
 20
87.97888247311425
 30
0.0
 10
-9.246462850830024
 20
88.28335559003031
 30
0.0
 10
-9.435753038679259
 20
89.19339595685035
 30
0.0
 10
-9.499999999999998
 20
89.79660942864413
 30
0.0
 10
-9.499999999999998
 20
90.39526106146263
 30
0.0
  0
SPLINE
  5
92
330
1F
100
AcDbEntity
  8
0
  6
Continuous
 62
     7
370
    25
100
AcDbSpline
210
0.0
220
0.0
230
1.0
 70
     8
 71
     3
 72
    52
 73
    48
 74
     0
 42
0.000000001
 43
0.00000001
 40
0.0
 40
0.0
 40
0.0
 40
0.0
 40
0.0625000000000009
 40
0.0625000000000009
 40
0.1250000000000017
 40
0.1250000000000017
 40
0.1875000000000026
 40
0.1875000000000026
 40
0.2187500000000026
 40
0.2187500000000026
 40
0.2500000000000026
 40
0.2500000000000026
 40
0.2812500000000026
 40
0.2812500000000026
 40
0.3125000000000026
 40
0.3125000000000026
 40
0.3750000000000022
 40
0.3750000000000022
 40
0.4062500000000021
 40
0.4062500000000021
 40
0.437500000000002
 40
0.437500000000002
 40
0.500000000000002
 40
0.500000000000002
 40
0.531250000000002
 40
0.531250000000002
 40
0.562500000000002
 40
0.562500000000002
 40
0.593750000000002
 40
0.593750000000002
 40
0.625000000000002
 40
0.625000000000002
 40
0.6875000000000019
 40
0.6875000000000019
 40
0.7187500000000017
 40
0.7187500000000017
 40
0.7500000000000013
 40
0.7500000000000013
 40
0.8125000000000012
 40
0.8125000000000012
 40
0.8750000000000011
 40
0.8750000000000011
 40
0.9062500000000012
 40
0.9062500000000012
 40
0.9375000000000013
 40
0.9375000000000013
 40
1.0
 40
1.0
 40
1.0
 40
1.0
 10
-9.499999999999996
 20
107.1997087384123
 30
0.0
 10
-9.499999999999998
 20
107.7978675045055
 30
0.0
 10
-9.43588115791535
 20
108.3688293265284
 30
0.0
 10
-9.187499583306732
 20
109.4625037897268
 30
0.0
 10
-8.999901901997706
 20
109.9898873831579
 30
0.0
 10
-8.520716379937882
 20
110.9609899061471
 30
0.0
 10
-8.229348659955987
 20
111.409530637703
 30
0.0
 10
-7.714440650835087
 20
112.0356297707835
 30
0.0
 10
-7.530513174022599
 20
112.2353009697767
 30
0.0
 10
-7.143156699293773
 20
112.6132342849919
 30
0.0
 10
-6.939057668339225
 20
112.7923252360769
 30
0.0
 10
-6.509814790566812
 20
113.1321819636144
 30
0.0
 10
-6.284672276854225
 20
113.2929451435278
 30
0.0
 10
-5.812409175429838
 20
113.5968308230389
 30
0.0
 10
-5.563971491350882
 20
113.740545304627
 30
0.0
 10
-4.798436627629563
 20
114.1377828106436
 30
0.0
 10
-4.258883764162467
 20
114.3600078325313
 30
0.0
 10
-3.40323230720399
 20
114.6325930058869
 30
0.0
 10
-3.110242746969463
 20
114.7132325455282
 30
0.0
 10
-2.507564594448125
 20
114.8533785991966
 30
0.0
 10
-2.199851253838422
 20
114.9122611627025
 30
0.0
 10
-1.275137076501445
 20
115.0527736674471
 30
0.0
 10
-0.6498219221496397
 20
115.1003269172035
 30
0.0
 10
0.3018812613022979
 20
115.1014729260758
 30
0.0
 10
0.6233115923033155
 20
115.0898161760138
 30
0.0
 10
1.255385290097173
 20
115.0429772667632
 30
0.0
 10
1.567346346939731
 20
115.0079398479826
 30
0.0
 10
2.183427233170439
 20
114.9151665886208
 30
0.0
 10
2.487546385152443
 20
114.8574297949539
 30
0.0
 10
3.088040388942599
 20
114.7189582409742
 30
0.0
 10
3.385869499062943
 20
114.6376819079392
 30
0.0
 10
4.250532345370164
 20
114.3635208267591
 30
0.0
 10
4.792696009609538
 20
114.1403451160775
 30
0.0
 10
5.558700159040049
 20
113.7434855616296
 30
0.0
 10
5.807206050821419
 20
113.599974304809
 30
0.0
 10
6.280890432868009
 20
113.2955793470604
 30
0.0
 10
6.506501315339815
 20
113.1346391303868
 30
0.0
 10
7.151223386235324
 20
112.6246703311576
 30
0.0
 10
7.538624446240524
 20
112.2488794168419
 30
0.0
 10
8.22781299453558
 20
111.4119264712176
 30
0.0
 10
8.518647684986835
 20
110.9639532933404
 30
0.0
 10
8.876522313800429
 20
110.2405272860259
 30
0.0
 10
8.98263658665159
 20
109.9907513278745
 30
0.0
 10
9.167443848033189
 20
109.4719473879664
 30
0.0
 10
9.246462850830024
 20
109.2011674741475
 30
0.0
 10
9.435753038679266
 20
108.3727262641139
 30
0.0
 10
9.500000000000009
 20
107.7983603712308
 30
0.0
 10
9.500000000000002
 20
107.1997087384123
 30
0.0
  0
LWPOLYLINE
  5
95
330
1F
100
AcDbEntity
  8
0
  6
Continuous
 62
     7
370
    25
100
AcDbPolyline
 90
       19
 70
   128
 43
0.0
 10
15.0
 20
72.7294524566
 10
13.8177417287
 20
72.1666782468
 10
12.4718396874
 20
71.6532758244
 10
10.9782334188
 20
71.195325424
 10
9.3546117294
 20
70.7982505605
 10
7.6202032009
 20
70.4667537989
 10
5.7955484654
 20
70.2047610614
 10
3.9022569427
 20
70.0153751329
 10
1.962750919
 20
69.9008389143
 10
0.0
 20
69.8625088603
 10
-1.962750919
 20
69.9008389143
 10
-3.9022569427
 20
70.0153751329
 10
-5.7955484654
 20
70.2047610614
 10
-7.6202032009
 20
70.4667537989
 10
-9.3546117294
 20
70.7982505605
 10
-10.9782334188
 20
71.195325424
 10
-12.4718396874
 20
71.6532758244
 10
-13.8177417287
 20
72.1666782468
 10
-15.0
 20
72.7294524566
  0
LWPOLYLINE
  5
97
330
1F
100
AcDbEntity
  8
0
  6
Continuous
 62
     7
370
    25
100
AcDbPolyline
 90
       19
 70
   128
 43
0.0
 10
-15.0
 20
181.0247819303
 10
-13.8177417287
 20
180.4620077204
 10
-12.4718396874
 20
179.9486052981
 10
-10.9782334188
 20
179.4906548977
 10
-9.3546117294
 20
179.0935800342
 10
-7.6202032009
 20
178.7620832726
 10
-5.7955484654
 20
178.5000905351
 10
-3.9022569427
 20
178.3107046065
 10
-1.962750919
 20
178.196168388
 10
0.0
 20
178.1578383339
 10
1.962750919
 20
178.196168388
 10
3.9022569427
 20
178.3107046065
 10
5.7955484654
 20
178.5000905351
 10
7.6202032009
 20
178.7620832726
 10
9.3546117294
 20
179.0935800342
 10
10.9782334188
 20
179.4906548977
 10
12.4718396874
 20
179.9486052981
 10
13.8177417287
 20
180.4620077204
 10
15.0
 20
181.0247819303
  0
LWPOLYLINE
  5
9C
330
1F
100
AcDbEntity
  8
0
  6
Continuous
 62
     7
370
    25
100
AcDbPolyline
 90
       12
 70
   128
 43
0.0
 10
0.0
 20
179.8923392097
 10
1.4459187569
 20
179.9293995268
 10
2.8624027775
 20
180.0398260368
 10
4.2206165321
 20
180.2213707745
 10
5.4929107053
 20
180.4703380125
 10
6.6533850569
 20
180.7816594958
 10
7.6784156754
 20
181.1489976168
 10
8.5471358936
 20
181.5648744306
 10
9.2418610728
 20
182.0208238847
 10
9.7484486119
 20
182.507564163
 10
10.0565858495
 20
183.015186637
 10
10.16
 20
183.5333575771
  0
LWPOLYLINE
  5
9D
330
1F
100
AcDbEntity
  8
0
  6
Continuous
 62
     7
370
    25
100
AcDbPolyline
 90
       12
 70
   128
 43
0.0
 10
-10.16
 20
183.5333575771
 10
-10.0565858495
 20
183.015186637
 10
-9.7484486119
 20
182.507564163
 10
-9.2418610728
 20
182.0208238847
 10
-8.5471358936
 20
181.5648744306
 10
-7.6784156754
 20
181.1489976168
 10
-6.6533850569
 20
180.7816594958
 10
-5.4929107053
 20
180.4703380125
 10
-4.2206165321
 20
180.2213707745
 10
-2.8624027775
 20
180.0398260368
 10
-1.4459187569
 20
179.9293995268
 10
0.0
 20
179.8923392097
  0
LWPOLYLINE
  5
9E
330
1F
100
AcDbEntity
  8
0
  6
Continuous
 62
     7
370
    25
100
AcDbPolyline
 90
       25
 70
   128
 43
0.0
 10
-10.0479362667
 20
193.4084522389
 10
-10.1598545102
 20
192.8886470786
 10
-10.0634671913
 20
192.3684424162
 10
-9.7607505206
 20
191.8585039089
 10
-9.2579110406
 20
191.3692867287
 10
-8.5652583733
 20
190.9108212024
 10
-7.6969938444
 20
190.4925071614
 10
-6.6709193163
 20
190.1229212187
 10
-5.5080721997
 20
189.8096409247
 10
-4.2322941276
 20
189.5590894054
 10
-2.8697421348
 20
189.3764036711
 10
-1.4483523655
 20
189.2653292925
 10
0.0027326967
 20
189.2281436064
 10
1.4537617308
 20
189.265609024
 10
2.874984565
 20
189.3769573988
 10
4.2372621381
 20
189.5599057764
 10
5.5126639324
 20
189.810703201
 10
6.6750406277
 20
190.1242076208
 10
7.700560236
 20
190.4939913143
 10
8.5681967241
 20
190.9124726769
 10
9.2601611061
 20
191.3710716648
 10
9.7622661683
 20
191.8603857104
 10
10.064217346
 20
192.370382501
 10
10.1598237917
 20
192.8906056694
 10
10.0471253048
 20
193.4103891792
  0
SPLINE
  5
9F
330
1F
100
AcDbEntity
  8
0
  6
Continuous
 62
     7
370
    25
100
AcDbSpline
210
0.0
220
0.0
230
1.0
 70
     8
 71
     3
 72
    20
 73
    16
 74
     0
 42
0.000000001
 43
0.00000001
 40
0.0
 40
0.0
 40
0.0
 40
0.0
 40
0.0005361115479628
 40
0.084077837608406
 40
0.1669573752086113
 40
0.2508446526852502
 40
0.3335638049284571
 40
0.4173355834083936
 40
0.5005345756222322
 40
0.583733567836072
 40
0.6675053463160077
 40
0.7502244985592138
 40
0.834111776035854
 40
0.9169913136360592
 40
1.0
 40
1.0
 40
1.0
 40
1.0
 10
10.15872820531396
 20
192.8197322221846
 30
0.0
 10
10.15915051053329
 20
192.81751402919
 30
0.0
 10
10.22538021550273
 20
192.4696370414863
 30
0.0
 10
9.89150183711559
 20
191.7727555223591
 30
0.0
 10
8.898189841799057
 20
190.801957724781
 30
0.0
 10
7.253930471648646
 20
189.952846025282
 30
0.0
 10
5.122714207213632
 20
189.2857569701042
 30
0.0
 10
2.64470249354336
 20
188.8316062696967
 30
0.0
 10
-0.0172206765456859
 20
188.6230380803456
 30
0.0
 10
-2.678481297672656
 20
188.6651770441295
 30
0.0
 10
-5.151485467875203
 20
188.9465631226168
 30
0.0
 10
-7.282846293329473
 20
189.4514847641488
 30
0.0
 10
-8.898737077744446
 20
190.1251493298328
 30
0.0
 10
-9.960117369034169
 20
190.9300349120999
 30
0.0
 10
-10.09186758442354
 20
191.5051450864031
 30
0.0
 10
-10.15779397778828
 20
191.7929240434783
 30
0.0
  0
SPLINE
  5
A0
330
1F
100
AcDbEntity
  8
0
  6
Continuous
 62
     7
370
    25
100
AcDbSpline
210
0.0
220
0.0
230
1.0
 70
     8
 71
     3
 72
    20
 73
    16
 74
     0
 42
0.000000001
 43
0.00000001
 40
0.0
 40
0.0
 40
0.0
 40
0.0
 40
0.0005361115479628
 40
0.084077837608406
 40
0.1669573752086114
 40
0.2508446526852503
 40
0.3335638049284572
 40
0.4173355834083937
 40
0.5005345756222324
 40
0.5837335678360721
 40
0.6675053463160078
 40
0.750224498559214
 40
0.8341117760358542
 40
0.9169913136360595
 40
1.0
 40
1.0
 40
1.0
 40
1.0
 10
10.15872820531396
 20
190.7658552838907
 30
0.0
 10
10.15915051053329
 20
190.7636370908962
 30
0.0
 10
10.22538021550264
 20
190.415760103191
 30
0.0
 10
9.89150183711563
 20
189.7188785840659
 30
0.0
 10
8.898189841799056
 20
188.7480807864872
 30
0.0
 10
7.253930471648649
 20
187.8989690869882
 30
0.0
 10
5.122714207213632
 20
187.2318800318104
 30
0.0
 10
2.64470249354336
 20
186.7777293314029
 30
0.0
 10
-0.0172206765456859
 20
186.5691611420517
 30
0.0
 10
-2.678481297672656
 20
186.6113001058357
 30
0.0
 10
-5.151485467875205
 20
186.892686184323
 30
0.0
 10
-7.282846293329472
 20
187.3976078258549
 30
0.0
 10
-8.898737077744444
 20
188.0712723915389
 30
0.0
 10
-9.960117369034172
 20
188.876157973806
 30
0.0
 10
-10.09186758442354
 20
189.4512681481093
 30
0.0
 10
-10.15779397778828
 20
189.7390471051845
 30
0.0
  0
SPLINE
  5
A1
330
1F
100
AcDbEntity
  8
0
  6
Continuous
 62
     7
370
    25
100
AcDbSpline
210
0.0
220
0.0
230
1.0
 70
     8
 71
     3
 72
    20
 73
    16
 74
     0
 42
0.000000001
 43
0.00000001
 40
0.0
 40
0.0
 40
0.0
 40
0.0
 40
0.0005361115479632
 40
0.0840778376084065
 40
0.1669573752086116
 40
0.2508446526852506
 40
0.3335638049284575
 40
0.417335583408394
 40
0.5005345756222327
 40
0.5837335678360724
 40
0.6675053463160082
 40
0.7502244985592144
 40
0.8341117760358543
 40
0.9169913136360597
 40
1.0
 40
1.0
 40
1.0
 40
1.0
 10
10.15872820531396
 20
188.7119783455969
 30
0.0
 10
10.15915051053329
 20
188.7097601526023
 30
0.0
 10
10.22538021550273
 20
188.3618831648978
 30
0.0
 10
9.891501837115596
 20
187.6650016457719
 30
0.0
 10
8.898189841799057
 20
186.6942038481933
 30
0.0
 10
7.253930471648646
 20
185.8450921486943
 30
0.0
 10
5.122714207213636
 20
185.1780030935165
 30
0.0
 10
2.644702493543358
 20
184.723852393109
 30
0.0
 10
-0.0172206765456841
 20
184.5152842037578
 30
0.0
 10
-2.678481297672656
 20
184.5574231675417
 30
0.0
 10
-5.151485467875204
 20
184.8388092460292
 30
0.0
 10
-7.282846293329465
 20
185.343730887561
 30
0.0
 10
-8.898737077744455
 20
186.0173954532452
 30
0.0
 10
-9.960117369034167
 20
186.8222810355121
 30
0.0
 10
-10.09186758442354
 20
187.3973912098154
 30
0.0
 10
-10.15779397778828
 20
187.6851701668906
 30
0.0
  0
SPLINE
  5
A2
330
1F
100
AcDbEntity
  8
0
  6
Continuous
 62
     7
370
    25
100
AcDbSpline
210
0.0
220
0.0
230
1.0
 70
     8
 71
     3
 72
    20
 73
    16
 74
     0
 42
0.000000001
 43
0.00000001
 40
0.0
 40
0.0
 40
0.0
 40
0.0
 40
0.0005361115479634
 40
0.0840778376084065
 40
0.1669573752086118
 40
0.2508446526852504
 40
0.3335638049284572
 40
0.4173355834083936
 40
0.5005345756222321
 40
0.5837335678360718
 40
0.6675053463160073
 40
0.7502244985592135
 40
0.8341117760358532
 40
0.9169913136360585
 40
1.0
 40
1.0
 40
1.0
 40
1.0
 10
10.15872820531396
 20
186.658101407303
 30
0.0
 10
10.15915051053329
 20
186.6558832143085
 30
0.0
 10
10.22538021550281
 20
186.3080062266058
 30
0.0
 10
9.891501837115557
 20
185.6111247074772
 30
0.0
 10
8.898189841799068
 20
184.6403269098996
 30
0.0
 10
7.253930471648642
 20
183.7912152104004
 30
0.0
 10
5.122714207213634
 20
183.1241261552226
 30
0.0
 10
2.644702493543358
 20
182.6699754548152
 30
0.0
 10
-0.0172206765456841
 20
182.4614072654639
 30
0.0
 10
-2.678481297672654
 20
182.503546229248
 30
0.0
 10
-5.151485467875206
 20
182.7849323077353
 30
0.0
 10
-7.282846293329467
 20
183.2898539492673
 30
0.0
 10
-8.898737077744451
 20
183.9635185149512
 30
0.0
 10
-9.960117369034176
 20
184.7684040972183
 30
0.0
 10
-10.09186758442354
 20
185.3435142715217
 30
0.0
 10
-10.15779397778828
 20
185.6312932285968
 30
0.0
  0
SPLINE
  5
A3
330
1F
100
AcDbEntity
  8
0
  6
Continuous
 62
     7
370
    25
100
AcDbSpline
210
0.0
220
0.0
230
1.0
 70
     8
 71
     3
 72
    21
 73
    17
 74
     0
 42
0.000000001
 43
0.00000001
 40
0.0
 40
0.0
 40
0.0
 40
0.0
 40
0.042208260837804
 40
0.1193631722788757
 40
0.1959065199611394
 40
0.2733805652072261
 40
0.3497757890883755
 40
0.427143165304715
 40
0.5039815451054989
 40
0.5808199249062819
 40
0.6581873011226208
 40
0.7345825250037713
 40
0.8120565702498567
 40
0.8885999179321202
 40
0.9657548293731923
 40
1.0
 40
1.0
 40
1.0
 40
1.0
 10
-9.972079969057308
 20
185.1670350533667
 30
0.0
 10
-10.05417349862203
 20
185.0108084912879
 30
0.0
 10
-10.28633051997078
 20
184.5690063967734
 30
0.0
 10
-9.901145863084762
 20
183.8299851516417
 30
0.0
 10
-8.895574257748041
 20
183.0258204674319
 30
0.0
 10
-7.254619562223682
 20
182.3538012262258
 30
0.0
 10
-5.122515867254466
 20
181.8515385737203
 30
0.0
 10
-2.644767201220754
 20
181.5731178347677
 30
0.0
 10
0.0173186505611558
 20
181.5341990024406
 30
0.0
 10
2.678191949894219
 20
181.74597648967
 30
0.0
 10
5.15258481043529
 20
182.2031251152817
 30
0.0
 10
7.278806678143048
 20
182.8727544021005
 30
0.0
 10
8.913998646756218
 20
183.7239571047451
 30
0.0
 10
9.906035653463617
 20
184.6955402684632
 30
0.0
 10
10.28406734150185
 20
185.546691382447
 30
0.0
 10
10.0695365339214
 20
186.0417798705358
 30
0.0
 10
10.00358825117397
 20
186.1939735622751
 30
0.0
  0
SPLINE
  5
A4
330
1F
100
AcDbEntity
  8
0
  6
Continuous
 62
     7
370
    25
100
AcDbSpline
210
0.0
220
0.0
230
1.0
 70
     8
 71
     3
 72
    21
 73
    17
 74
     0
 42
0.000000001
 43
0.00000001
 40
0.0
 40
0.0
 40
0.0
 40
0.0
 40
0.0422082608378034
 40
0.1193631722788752
 40
0.1959065199611389
 40
0.2733805652072256
 40
0.3497757890883751
 40
0.4271431653047146
 40
0.5039815451054986
 40
0.5808199249062815
 40
0.6581873011226207
 40
0.7345825250037712
 40
0.8120565702498566
 40
0.8885999179321201
 40
0.9657548293731923
 40
1.0
 40
1.0
 40
1.0
 40
1.0
 10
-9.972079969057308
 20
187.2209119916605
 30
0.0
 10
-10.05417349862203
 20
187.0646854295816
 30
0.0
 10
-10.28633051997078
 20
186.6228833350672
 30
0.0
 10
-9.901145863084762
 20
185.8838620899356
 30
0.0
 10
-8.895574257748036
 20
185.0796974057256
 30
0.0
 10
-7.254619562223684
 20
184.4076781645196
 30
0.0
 10
-5.122515867254465
 20
183.9054155120142
 30
0.0
 10
-2.644767201220754
 20
183.6269947730616
 30
0.0
 10
0.0173186505611506
 20
183.5880759407343
 30
0.0
 10
2.678191949894227
 20
183.7998534279639
 30
0.0
 10
5.152584810435287
 20
184.2570020535756
 30
0.0
 10
7.278806678143044
 20
184.9266313403943
 30
0.0
 10
8.913998646756221
 20
185.777834043039
 30
0.0
 10
9.906035653463617
 20
186.749417206757
 30
0.0
 10
10.28406734150185
 20
187.6005683207409
 30
0.0
 10
10.0695365339214
 20
188.0956568088296
 30
0.0
 10
10.00358825117397
 20
188.2478505005689
 30
0.0
  0
SPLINE
  5
A5
330
1F
100
AcDbEntity
  8
0
  6
Continuous
 62
     7
370
    25
100
AcDbSpline
210
0.0
220
0.0
230
1.0
 70
     8
 71
     3
 72
    21
 73
    17
 74
     0
 42
0.000000001
 43
0.00000001
 40
0.0
 40
0.0
 40
0.0
 40
0.0
 40
0.0422082608378042
 40
0.119363172278876
 40
0.1959065199611396
 40
0.2733805652072265
 40
0.3497757890883759
 40
0.4271431653047154
 40
0.5039815451054993
 40
0.5808199249062823
 40
0.6581873011226214
 40
0.7345825250037719
 40
0.8120565702498572
 40
0.888599917932121
 40
0.965754829373193
 40
1.0
 40
1.0
 40
1.0
 40
1.0
 10
-9.972079969057306
 20
189.2747889299544
 30
0.0
 10
-10.05417349862203
 20
189.1185623678755
 30
0.0
 10
-10.28633051997078
 20
188.6767602733611
 30
0.0
 10
-9.901145863084766
 20
187.9377390282295
 30
0.0
 10
-8.895574257748038
 20
187.1335743440196
 30
0.0
 10
-7.254619562223686
 20
186.4615551028134
 30
0.0
 10
-5.122515867254465
 20
185.9592924503081
 30
0.0
 10
-2.644767201220756
 20
185.6808717113555
 30
0.0
 10
0.0173186505611558
 20
185.6419528790283
 30
0.0
 10
2.678191949894222
 20
185.8537303662577
 30
0.0
 10
5.152584810435287
 20
186.3108789918695
 30
0.0
 10
7.278806678143048
 20
186.9805082786881
 30
0.0
 10
8.913998646756221
 20
187.8317109813329
 30
0.0
 10
9.906035653463617
 20
188.8032941450509
 30
0.0
 10
10.28406734150185
 20
189.6544452590347
 30
0.0
 10
10.0695365339214
 20
190.1495337471235
 30
0.0
 10
10.00358825117397
 20
190.3017274388628
 30
0.0
  0
SPLINE
  5
A6
330
1F
100
AcDbEntity
  8
0
  6
Continuous
 62
     7
370
    25
100
AcDbSpline
210
0.0
220
0.0
230
1.0
 70
     8
 71
     3
 72
    21
 73
    17
 74
     0
 42
0.000000001
 43
0.00000001
 40
0.0
 40
0.0
 40
0.0
 40
0.0
 40
0.0422082608378037
 40
0.1193631722788754
 40
0.1959065199611391
 40
0.273380565207226
 40
0.3497757890883755
 40
0.427143165304715
 40
0.503981545105499
 40
0.5808199249062819
 40
0.658187301122621
 40
0.7345825250037715
 40
0.8120565702498569
 40
0.8885999179321207
 40
0.9657548293731928
 40
1.0
 40
1.0
 40
1.0
 40
1.0
 10
-9.97207996905731
 20
191.3286658682483
 30
0.0
 10
-10.05417349862203
 20
191.1724393061694
 30
0.0
 10
-10.28633051997078
 20
190.7306372116549
 30
0.0
 10
-9.901145863084768
 20
189.9916159665233
 30
0.0
 10
-8.895574257748034
 20
189.1874512823134
 30
0.0
 10
-7.254619562223685
 20
188.5154320411073
 30
0.0
 10
-5.122515867254466
 20
188.0131693886019
 30
0.0
 10
-2.644767201220754
 20
187.7347486496493
 30
0.0
 10
0.0173186505611506
 20
187.6958298173221
 30
0.0
 10
2.678191949894227
 20
187.9076073045516
 30
0.0
 10
5.152584810435287
 20
188.3647559301633
 30
0.0
 10
7.278806678143044
 20
189.034385216982
 30
0.0
 10
8.913998646756221
 20
189.8855879196268
 30
0.0
 10
9.906035653463617
 20
190.8571710833448
 30
0.0
 10
10.28406734150185
 20
191.7083221973285
 30
0.0
 10
10.0695365339214
 20
192.2034106854173
 30
0.0
 10
10.00358825117397
 20
192.3556043771566
 30
0.0
  0
SPLINE
  5
A7
330
1F
100
AcDbEntity
  8
0
  6
Continuous
 62
     7
370
    25
100
AcDbSpline
210
0.0
220
0.0
230
1.0
 70
     8
 71
     3
 72
    10
 73
     6
 74
     0
 42
0.000000001
 43
0.00000001
 40
0.0
 40
0.0
 40
0.0
 40
0.0
 40
0.1052349867802475
 40
0.7302567050458364
 40
1.0
 40
1.0
 40
1.0
 40
1.0
 10
-8.541460982176094
 20
194.6732024315055
 30
0.0
 10
-8.633458693151738
 20
194.6364116684744
 30
0.0
 10
-9.271858025392099
 20
194.3811096799505
 30
0.0
 10
-9.73838068539381
 20
193.9305919016707
 30
0.0
 10
-9.97623171819925
 20
193.529399141584
 30
0.0
 10
-10.04793626671118
 20
193.4084522388569
 30
0.0
  0
SPLINE
  5
A8
330
1F
100
AcDbEntity
  8
0
  6
Continuous
 62
     7
370
    25
100
AcDbSpline
210
0.0
220
0.0
230
1.0
 70
     8
 71
     3
 72
    26
 73
    22
 74
     0
 42
0.000000001
 43
0.00000001
 40
0.0
 40
0.0
 40
0.0
 40
0.0
 40
0.1250000000000006
 40
0.1250000000000006
 40
0.1875000000000008
 40
0.1875000000000008
 40
0.250000000000001
 40
0.250000000000001
 40
0.375000000000001
 40
0.375000000000001
 40
0.4375000000000004
 40
0.4375000000000004
 40
0.4999999999999998
 40
0.4999999999999998
 40
0.625
 40
0.625
 40
0.75
 40
0.75
 40
0.8750000000000001
 40
0.8750000000000001
 40
1.0
 40
1.0
 40
1.0
 40
1.0
 10
0.0078006693107376
 20
196.201752915359
 30
0.0
 10
0.5891301745807598
 20
196.2147187571697
 30
0.0
 10
1.16483001110026
 20
196.2084344027641
 30
0.0
 10
2.020275341152603
 20
196.1712954473709
 30
0.0
 10
2.304064309965978
 20
196.1542671825282
 30
0.0
 10
2.868876902663365
 20
196.1107547798861
 30
0.0
 10
3.151319459448142
 20
196.084092789734
 30
0.0
 10
3.980922748214266
 20
195.9909321288883
 30
0.0
 10
4.511437062719041
 20
195.9115435379537
 30
0.0
 10
5.274175476635353
 20
195.7671504420537
 30
0.0
 10
5.52284623817585
 20
195.714747509308
 30
0.0
 10
6.008975758075873
 20
195.6013509117462
 30
0.0
 10
6.246164657821248
 20
195.5404940574892
 30
0.0
 10
6.927697701115478
 20
195.3488458053469
 30
0.0
 10
7.346968620496177
 20
195.2079918054465
 30
0.0
 10
8.115791175342778
 20
194.9002745357874
 30
0.0
 10
8.46701659451523
 20
194.7319485430423
 30
0.0
 10
9.073003208853015
 20
194.3809112914218
 30
0.0
 10
9.331286833378263
 20
194.1971637211744
 30
0.0
 10
9.758109300897946
 20
193.8131507980198
 30
0.0
 10
9.92762348123194
 20
193.6121640795881
 30
0.0
 10
10.04712530477361
 20
193.410389179166
 30
0.0
  0
SPLINE
  5
A9
330
1F
100
AcDbEntity
  8
0
  6
Continuous
 62
     7
370
    25
100
AcDbSpline
210
0.0
220
0.0
230
1.0
 70
     8
 71
     3
 72
    30
 73
    26
 74
     0
 42
0.000000001
 43
0.00000001
 40
0.0
 40
0.0
 40
0.0
 40
0.0
 40
0.1249999999999993
 40
0.1249999999999993
 40
0.1874999999999997
 40
0.1874999999999997
 40
0.2500000000000001
 40
0.2500000000000001
 40
0.3750000000000006
 40
0.3750000000000006
 40
0.4375000000000008
 40
0.4375000000000008
 40
0.500000000000001
 40
0.500000000000001
 40
0.6250000000000012
 40
0.6250000000000012
 40
0.6875000000000012
 40
0.6875000000000012
 40
0.7500000000000011
 40
0.7500000000000011
 40
0.8750000000000006
 40
0.8750000000000006
 40
0.9375000000000002
 40
0.9375000000000002
 40
1.0
 40
1.0
 40
1.0
 40
1.0
 10
-10.04793626671115
 20
193.408452238857
 30
0.0
 10
-9.928711039317772
 20
193.6103805371472
 30
0.0
 10
-9.763020838707893
 20
193.8076681093679
 30
0.0
 10
-9.443461305114791
 20
194.0965058661032
 30
0.0
 10
-9.323992383838311
 20
194.1920123608727
 30
0.0
 10
-9.062962845058316
 20
194.3780723892527
 30
0.0
 10
-8.921870264327655
 20
194.4684134578548
 30
0.0
 10
-8.467740298260466
 20
194.7315938360102
 30
0.0
 10
-8.124082042331397
 20
194.8966491293595
 30
0.0
 10
-7.546425804777535
 20
195.1284283592045
 30
0.0
 10
-7.34234814160674
 20
195.2033943252601
 30
0.0
 10
-6.918639605229797
 20
195.3457970971847
 30
0.0
 10
-6.699366306915912
 20
195.4131946526507
 30
0.0
 10
-6.019869502844966
 20
195.6042732938154
 30
0.0
 10
-5.538486538820339
 20
195.7171056578767
 30
0.0
 10
-4.770467015182748
 20
195.8627975820943
 30
0.0
 10
-4.505530570933232
 20
195.9075955472932
 30
0.0
 10
-3.970283683934378
 20
195.9875166848564
 30
0.0
 10
-3.699163932633689
 20
196.0228432965966
 30
0.0
 10
-2.875556158564597
 20
196.1152398877519
 30
0.0
 10
-2.312905065619944
 20
196.1588398773144
 30
0.0
 10
-1.447966520634052
 20
196.1964572477026
 30
0.0
 10
-1.156174458298395
 20
196.2042859144432
 30
0.0
 10
-0.5744607641766496
 20
196.2102324005356
 30
0.0
 10
-0.283421985000476
 20
196.2084140444461
 30
0.0
 10
0.0078006693101634
 20
196.201752915359
 30
0.0
  0
LWPOLYLINE
  5
AA
330
1F
100
AcDbEntity
  8
0
  6
Continuous
 62
     7
370
    25
100
AcDbPolyline
 90
       38
 70
   128
 43
0.0
 10
0.0
 20
190.3605861953
 10
1.1830057423
 20
190.3966697723
 10
2.3319785632
 20
190.5038824445
 10
3.4138646067
 20
190.6791398985
 10
4.3975399811
 20
190.9174002965
 10
5.2547061368
 20
191.2118093205
 10
5.9607039641
 20
191.5538973591
 10
6.4952231911
 20
191.9338231622
 10
6.8428866726
 20
192.3406569561
 10
6.9936927634
 20
192.7626948733
 10
6.9433030468
 20
193.1877956514
 10
6.6931671432
 20
193.603729915
 10
6.250481007
 20
193.9985319925
 10
5.6279799126
 20
194.360844147
 10
4.8435720828
 20
194.6802433175
 10
3.919823503
 20
194.9475409713
 10
2.8833087377
 20
195.1550474418
 10
1.7638464297
 20
195.2967931454
 10
0.5936414713
 20
195.3687003164
 10
-0.5936414713
 20
195.3687003164
 10
-1.7638464297
 20
195.2967931454
 10
-2.8833087377
 20
195.1550474418
 10
-3.919823503
 20
194.9475409713
 10
-4.8435720828
 20
194.6802433175
 10
-5.6279799126
 20
194.360844147
 10
-6.250481007
 20
193.9985319924
 10
-6.6931671432
 20
193.603729915
 10
-6.9433030468
 20
193.1877956514
 10
-6.9936927634
 20
192.7626948733
 10
-6.8428866726
 20
192.3406569561
 10
-6.4952231911
 20
191.9338231622
 10
-5.9607039641
 20
191.5538973591
 10
-5.2547061368
 20
191.2118093205
 10
-4.3975399811
 20
190.9174002965
 10
-3.4138646067
 20
190.6791398985
 10
-2.3319785632
 20
190.5038824445
 10
-1.1830057423
 20
190.3966697723
 10
0.0
 20
190.3605861953
  0
SPLINE
  5
AB
330
1F
100
AcDbEntity
  8
0
  6
Continuous
 62
     7
370
    25
100
AcDbSpline
210
0.0
220
0.0
230
1.0
 70
     8
 71
     3
 72
    14
 73
    10
 74
     0
 42
0.000000001
 43
0.00000001
 40
0.0
 40
0.0
 40
0.0
 40
0.0
 40
0.1515067948852795
 40
0.3073127175646301
 40
0.4620528264193464
 40
0.6167929352740642
 40
0.7725988579534138
 40
0.9264461096265701
 40
1.0
 40
1.0
 40
1.0
 40
1.0
 10
6.540134687305466
 20
189.7301948623354
 30
0.0
 10
5.936229315583252
 20
189.5174176103259
 30
0.0
 10
4.711282268974824
 20
189.0858253797567
 30
0.0
 10
2.430231058297349
 20
188.6733119086036
 30
0.0
 10
0.0027185038088354
 20
188.4715174414624
 30
0.0
 10
-2.441201312760573
 20
188.5005227332805
 30
0.0
 10
-4.684449916620813
 20
188.7551539193472
 30
0.0
 10
-6.357147010572772
 20
189.1102205486591
 30
0.0
 10
-7.047391917467253
 20
189.4155309561224
 30
0.0
 10
-7.270654640581165
 20
189.5142849379112
 30
0.0
  0
SPLINE
  5
AC
330
1F
100
AcDbEntity
  8
0
  6
Continuous
 62
     7
370
    25
100
AcDbSpline
210
0.0
220
0.0
230
1.0
 70
     8
 71
     3
 72
    14
 73
    10
 74
     0
 42
0.000000001
 43
0.00000001
 40
0.0
 40
0.0
 40
0.0
 40
0.0
 40
0.151506794885279
 40
0.30731271756463
 40
0.4620528264193464
 40
0.6167929352740644
 40
0.7725988579534143
 40
0.9264461096265709
 40
1.0
 40
1.0
 40
1.0
 40
1.0
 10
6.540134687305452
 20
187.6763179240415
 30
0.0
 10
5.936229315583243
 20
187.4635406720321
 30
0.0
 10
4.711282268974823
 20
187.0319484414629
 30
0.0
 10
2.430231058297349
 20
186.6194349703098
 30
0.0
 10
0.0027185038088354
 20
186.4176405031685
 30
0.0
 10
-2.441201312760573
 20
186.4466457949867
 30
0.0
 10
-4.684449916620814
 20
186.7012769810533
 30
0.0
 10
-6.357147010572765
 20
187.0563436103652
 30
0.0
 10
-7.047391917467247
 20
187.3616540178286
 30
0.0
 10
-7.270654640581159
 20
187.4604079996174
 30
0.0
  0
SPLINE
  5
AD
330
1F
100
AcDbEntity
  8
0
  6
Continuous
 62
     7
370
    25
100
AcDbSpline
210
0.0
220
0.0
230
1.0
 70
     8
 71
     3
 72
    14
 73
    10
 74
     0
 42
0.000000001
 43
0.00000001
 40
0.0
 40
0.0
 40
0.0
 40
0.0
 40
0.1515067948852794
 40
0.30731271756463
 40
0.4620528264193461
 40
0.6167929352740638
 40
0.7725988579534133
 40
0.9264461096265696
 40
1.0
 40
1.0
 40
1.0
 40
1.0
 10
6.540134687305466
 20
185.6224409857477
 30
0.0
 10
5.936229315583254
 20
185.4096637337383
 30
0.0
 10
4.711282268974825
 20
184.978071503169
 30
0.0
 10
2.430231058297349
 20
184.5655580320159
 30
0.0
 10
0.0027185038088354
 20
184.3637635648747
 30
0.0
 10
-2.441201312760573
 20
184.3927688566929
 30
0.0
 10
-4.684449916620814
 20
184.6474000427594
 30
0.0
 10
-6.357147010572776
 20
185.0024666720714
 30
0.0
 10
-7.047391917467257
 20
185.3077770795348
 30
0.0
 10
-7.270654640581172
 20
185.4065310613236
 30
0.0
  0
SPLINE
  5
AE
330
1F
100
AcDbEntity
  8
0
  6
Continuous
 62
     7
370
    25
100
AcDbSpline
210
0.0
220
0.0
230
1.0
 70
     8
 71
     3
 72
    14
 73
    10
 74
     0
 42
0.000000001
 43
0.00000001
 40
0.0
 40
0.0
 40
0.0
 40
0.0
 40
0.1515067948852799
 40
0.3073127175646304
 40
0.4620528264193465
 40
0.6167929352740642
 40
0.7725988579534138
 40
0.92644610962657
 40
1.0
 40
1.0
 40
1.0
 40
1.0
 10
6.540134687305466
 20
183.5685640474538
 30
0.0
 10
5.936229315583256
 20
183.3557867954445
 30
0.0
 10
4.711282268974829
 20
182.9241945648752
 30
0.0
 10
2.430231058297349
 20
182.511681093722
 30
0.0
 10
0.0027185038088372
 20
182.3098866265808
 30
0.0
 10
-2.441201312760575
 20
182.338891918399
 30
0.0
 10
-4.684449916620813
 20
182.5935231044656
 30
0.0
 10
-6.357147010572771
 20
182.9485897337775
 30
0.0
 10
-7.047391917467256
 20
183.2539001412409
 30
0.0
 10
-7.270654640581171
 20
183.3526541230297
 30
0.0
  0
SPLINE
  5
AF
330
1F
100
AcDbEntity
  8
0
  6
Continuous
 62
     7
370
    25
100
AcDbSpline
210
0.0
220
0.0
230
1.0
 70
     8
 71
     3
 72
    12
 73
     8
 74
     0
 42
0.000000001
 43
0.00000001
 40
0.0
 40
0.0
 40
0.0
 40
0.0
 40
0.2237800367846165
 40
0.4551551511579093
 40
0.678686732793993
 40
0.9074710931492331
 40
1.0
 40
1.0
 40
1.0
 40
1.0
 10
9.500000000000002
 20
91.25908334711315
 30
0.0
 10
9.47939402232664
 20
90.81326360482974
 30
0.0
 10
9.437482701650149
 20
89.90649303179832
 30
0.0
 10
9.109413791877671
 20
88.52941444474212
 30
0.0
 10
8.590841320458155
 20
87.19355315763744
 30
0.0
 10
8.0679174505627
 20
86.16276629251605
 30
0.0
 10
7.658097245372784
 20
85.62395478447506
 30
0.0
 10
7.540080905987494
 20
85.46879268901858
 30
0.0
  0
SPLINE
  5
B0
330
1F
100
AcDbEntity
  8
0
  6
Continuous
 62
     7
370
    25
100
AcDbSpline
210
0.0
220
0.0
230
1.0
 70
     8
 71
     3
 72
    12
 73
     8
 74
     0
 42
0.000000001
 43
0.00000001
 40
0.0
 40
0.0
 40
0.0
 40
0.0
 40
0.0264038425984699
 40
0.3009426935799079
 40
0.5846302952677925
 40
0.7895281737484868
 40
1.0
 40
1.0
 40
1.0
 40
1.0
 10
-7.563510267511612
 20
85.47494415074759
 30
0.0
 10
-7.598197192223545
 20
85.51815407689558
 30
0.0
 10
-7.993547850593931
 20
86.01064722503766
 30
0.0
 10
-8.562454776739035
 20
87.11511082483054
 30
0.0
 10
-9.137843256002366
 20
88.60340259479364
 30
0.0
 10
-9.446094877087173
 20
90.01738360195598
 30
0.0
 10
-9.481871593523138
 20
90.84149710509995
 30
0.0
 10
-9.500000000000002
 20
91.25908334711316
 30
0.0
  0
SPLINE
  5
B1
330
1F
100
AcDbEntity
  8
0
  6
Continuous
 62
     7
370
    25
100
AcDbSpline
210
0.0
220
0.0
230
1.0
 70
     8
 71
     3
 72
    14
 73
    10
 74
     0
 42
0.000000001
 43
0.00000001
 40
0.0
 40
0.0
 40
0.0
 40
0.0
 40
0.2051292197169669
 40
0.2051292197169669
 40
0.4038469147877243
 40
0.5032057623231037
 40
0.6025646098584829
 40
0.7499999999999998
 40
1.0
 40
1.0
 40
1.0
 40
1.0
 10
15.0
 20
72.72945245662982
 30
0.0
 10
14.99999999930474
 20
71.38990644868025
 30
0.0
 10
15.17602652343221
 20
69.97139332636301
 30
0.0
 10
15.99922595591979
 20
67.10544740755118
 30
0.0
 10
16.93640445397438
 20
65.00584660803521
 30
0.0
 10
18.87660133157756
 20
62.47636944082608
 30
0.0
 10
20.89794101572718
 20
60.56579824001778
 30
0.0
 10
24.30132794100184
 20
58.40299778254438
 30
0.0
 10
27.46738747638564
 20
57.59980590002235
 30
0.0
 10
29.5
 20
57.50000000000002
 30
0.0
  0
SPLINE
  5
B3
330
1F
100
AcDbEntity
  8
0
  6
Continuous
 62
     7
370
    25
100
AcDbSpline
210
0.0
220
0.0
230
1.0
 70
     8
 71
     3
 72
    14
 73
    10
 74
     0
 42
0.000000001
 43
0.00000001
 40
0.0
 40
0.0
 40
0.0
 40
0.0
 40
0.2051292197169669
 40
0.2051292197169669
 40
0.4038469147877243
 40
0.5032057623231037
 40
0.6025646098584829
 40
0.7499999999999998
 40
1.0
 40
1.0
 40
1.0
 40
1.0
 10
-14.99999999999999
 20
72.72945245662982
 30
0.0
 10
-15.00000000000001
 20
71.38990644714691
 30
0.0
 10
-15.17602652455409
 20
69.97139332306023
 30
0.0
 10
-15.99922595908577
 20
67.10544740093157
 30
0.0
 10
-16.9364044595512
 20
65.00584659909504
 30
0.0
 10
-18.87660134157818
 20
62.4763694305605
 30
0.0
 10
-20.89794103000059
 20
60.56579822960567
 30
0.0
 10
-24.30132796233184
 20
58.40299777375013
 30
0.0
 10
-27.46738750218969
 20
57.59980589566759
 30
0.0
 10
-29.49999999999999
 20
57.50000000000002
 30
0.0
  0
LWPOLYLINE
  5
B5
330
1F
100
AcDbEntity
  8
0
  6
Continuous
 62
     7
370
    25
100
AcDbPolyline
 90
        3
 70
   128
 43
0.0
 10
29.468213177
 20
43.531786823
 10
29.444404582
 20
45.4743738885
 10
29.4139967506
 20
47.4139967506
  0
LWPOLYLINE
  5
B7
330
1F
100
AcDbEntity
  8
0
  6
Continuous
 62
     7
370
    25
100
AcDbPolyline
 90
        3
 70
   128
 43
0.0
 10
25.5860032494
 20
47.4139967506
 10
25.555595418
 20
45.4743738885
 10
25.531786823
 20
43.531786823
  0
LWPOLYLINE
  5
B9
330
1F
100
AcDbEntity
  8
0
  6
Continuous
 62
     7
370
    25
100
AcDbPolyline
 90
        3
 70
   128
 43
0.0
 10
1.968213177
 20
43.531786823
 10
1.944404582
 20
45.4743738885
 10
1.9139967506
 20
47.4139967506
  0
LWPOLYLINE
  5
BB
330
1F
100
AcDbEntity
  8
0
  6
Continuous
 62
     7
370
    25
100
AcDbPolyline
 90
        3
 70
   128
 43
0.0
 10
-1.9139967506
 20
47.4139967506
 10
-1.944404582
 20
45.4743738885
 10
-1.968213177
 20
43.531786823
  0
LWPOLYLINE
  5
BD
330
1F
100
AcDbEntity
  8
0
  6
Continuous
 62
     7
370
    25
100
AcDbPolyline
 90
        3
 70
   128
 43
0.0
 10
-25.531786823
 20
43.531786823
 10
-25.555595418
 20
45.4743738885
 10
-25.5860032494
 20
47.4139967506
  0
LWPOLYLINE
  5
BF
330
1F
100
AcDbEntity
  8
0
  6
Continuous
 62
     7
370
    25
100
AcDbPolyline
 90
        3
 70
   128
 43
0.0
 10
-29.4139967506
 20
47.4139967506
 10
-29.444404582
 20
45.4743738885
 10
-29.468213177
 20
43.531786823
  0
SPLINE
  5
C3
330
1F
100
AcDbEntity
  8
0
  6
Continuous
 62
     7
370
    25
100
AcDbSpline
210
0.0
220
0.0
230
1.0
 70
     8
 71
     3
 72
    29
 73
    25
 74
     0
 42
0.000000001
 43
0.00000001
 40
0.0
 40
0.0
 40
0.0
 40
0.0
 40
0.1249999999999995
 40
0.1249999999999995
 40
0.1874999999999986
 40
0.1874999999999986
 40
0.2499999999999976
 40
0.2499999999999976
 40
0.374999999999997
 40
0.374999999999997
 40
0.4374999999999961
 40
0.4374999999999961
 40
0.4999999999999952
 40
0.4999999999999952
 40
0.6249999999999953
 40
0.6249999999999953
 40
0.6874999999999963
 40
0.6874999999999963
 40
0.7499999999999972
 40
0.8124999999999982
 40
0.8124999999999982
 40
0.8749999999999992
 40
0.8749999999999992
 40
1.0
 40
1.0
 40
1.0
 40
1.0
 10
-29.49999999999999
 20
57.50000000000002
 30
0.0
 10
-30.16383419534523
 20
57.50000000000003
 30
0.0
 10
-30.81623102903755
 20
57.43455657262049
 30
0.0
 10
-31.77843120007454
 20
57.24246995738898
 30
0.0
 10
-32.09641181506213
 20
57.1626693630668
 30
0.0
 10
-32.72675395691095
 20
56.9708284978086
 30
0.0
 10
-33.03947893998633
 20
56.85840671735389
 30
0.0
 10
-33.94837532123795
 20
56.48012844103494
 30
0.0
 10
-34.52271171202707
 20
56.17178798206182
 30
0.0
 10
-35.33754395225393
 20
55.62588244700202
 30
0.0
 10
-35.60261400876123
 20
55.42880809720657
 30
0.0
 10
-36.10978035733908
 20
55.01123819419887
 30
0.0
 10
-36.35119215002234
 20
54.79156444130315
 30
0.0
 10
-37.04006334985441
 20
54.10078996734453
 30
0.0
 10
-37.45250160398808
 20
53.59824484868692
 30
0.0
 10
-37.99918930362725
 20
52.77934647282225
 30
0.0
 10
-38.1679490369382
 20
52.49726838881698
 30
0.0
 10
-38.47468965515993
 20
51.92277938070536
 30
0.0
 10
-38.75216634424271
 20
51.33572559093349
 30
0.0
 10
-38.9717593349982
 20
50.72372275638136
 30
0.0
 10
-39.16188034440538
 20
50.09897701423642
 30
0.0
 10
-39.24245039373497
 20
49.77870706581738
 30
0.0
 10
-39.43521928441407
 20
48.81255477423919
 30
0.0
 10
-39.49999999999999
 20
48.16039261869476
 30
0.0
 10
-39.49999999999999
 20
47.50000000000004
 30
0.0
  0
LWPOLYLINE
  5
C5
330
1F
100
AcDbEntity
  8
0
  6
Continuous
 62
     7
370
    25
100
AcDbPolyline
 90
        3
 70
   128
 43
0.0
 10
-11.781786823
 20
43.531786823
 10
-11.805595418
 20
45.4743738885
 10
-11.8360032494
 20
47.4139967506
  0
LWPOLYLINE
  5
C7
330
1F
100
AcDbEntity
  8
0
  6
Continuous
 62
     7
370
    25
100
AcDbPolyline
 90
        3
 70
   128
 43
0.0
 10
-15.6639967506
 20
47.4139967506
 10
-15.694404582
 20
45.4743738885
 10
-15.718213177
 20
43.531786823
  0
LWPOLYLINE
  5
C9
330
1F
100
AcDbEntity
  8
0
  6
Continuous
 62
     7
370
    25
100
AcDbPolyline
 90
        3
 70
   128
 43
0.0
 10
15.718213177
 20
43.531786823
 10
15.694404582
 20
45.4743738885
 10
15.6639967506
 20
47.4139967506
  0
LWPOLYLINE
  5
CB
330
1F
100
AcDbEntity
  8
0
  6
Continuous
 62
     7
370
    25
100
AcDbPolyline
 90
        3
 70
   128
 43
0.0
 10
11.8360032494
 20
47.4139967506
 10
11.805595418
 20
45.4743738885
 10
11.781786823
 20
43.531786823
  0
SPLINE
  5
CC
330
1F
100
AcDbEntity
  8
0
  6
Continuous
 62
     7
370
    25
100
AcDbSpline
210
0.0
220
0.0
230
1.0
 70
     8
 71
     3
 72
    26
 73
    22
 74
     0
 42
0.000000001
 43
0.00000001
 40
0.0
 40
0.0
 40
0.0
 40
0.0
 40
0.124999999999999
 40
0.124999999999999
 40
0.1874999999999993
 40
0.1874999999999993
 40
0.2499999999999996
 40
0.2499999999999996
 40
0.3749999999999997
 40
0.3749999999999997
 40
0.4999999999999998
 40
0.4999999999999998
 40
0.6249999999999999
 40
0.6249999999999999
 40
0.6875000000000002
 40
0.6875000000000002
 40
0.7500000000000007
 40
0.7500000000000007
 40
0.8750000000000003
 40
0.8750000000000003
 40
1.0
 40
1.0
 40
1.0
 40
1.0
 10
39.50000000000001
 20
47.50000000000002
 30
0.0
 10
39.5
 20
48.1605360990992
 30
0.0
 10
39.43520274577163
 20
48.80934575239823
 30
0.0
 10
39.24533765034992
 20
49.76584510843097
 30
0.0
 10
39.16648783639431
 20
50.08187251272521
 30
0.0
 10
38.97704200582501
 20
50.70822810644029
 30
0.0
 10
38.86586387979557
 20
51.01956702221228
 30
0.0
 10
38.49127356788588
 20
51.92538502079189
 30
0.0
 10
38.18582411488389
 20
52.49801784857814
 30
0.0
 10
37.4645904702333
 20
53.58186004532114
 30
0.0
 10
37.04459274331645
 20
54.09565554701656
 30
0.0
 10
36.12607085555094
 20
55.01789443758107
 30
0.0
 10
35.6247278518479
 20
55.43212023949291
 30
0.0
 10
34.80770575702629
 20
55.98150725314045
 30
0.0
 10
34.52372152311728
 20
56.15272638182464
 30
0.0
 10
33.94627589723333
 20
56.46315136691544
 30
0.0
 10
33.65136022227325
 20
56.60343888272013
 30
0.0
 10
32.74827231043071
 20
56.98020525849838
 30
0.0
 10
32.11957636323969
 20
57.1735034145478
 30
0.0
 10
30.82062975078448
 20
57.43452493556963
 30
0.0
 10
30.1639478550005
 20
57.50000000000002
 30
0.0
 10
29.50000000000001
 20
57.50000000000002
 30
0.0
  0
CIRCLE
  5
DC
330
1F
100
AcDbEntity
  8
0
  6
Continuous
 62
     7
370
    25
100
AcDbCircle
 10
13.75
 20
-6.5
 30
0.0
 40
0.2499999999999956
  0
CIRCLE
  5
E9
330
1F
100
AcDbEntity
  8
0
  6
Continuous
 62
     7
370
    25
100
AcDbCircle
 10
27.5
 20
-6.5
 30
0.0
 40
0.2499999999999973
  0
CIRCLE
  5
F5
330
1F
100
AcDbEntity
  8
0
  6
Continuous
 62
     7
370
    25
100
AcDbCircle
 10
-27.5
 20
-45.5
 30
0.0
 40
0.2500000000000071
  0
CIRCLE
  5
11B
330
1F
100
AcDbEntity
  8
0
  6
Continuous
 62
     7
370
    25
100
AcDbCircle
 10
-13.75
 20
-45.5
 30
0.0
 40
0.2500000000000071
  0
CIRCLE
  5
126
330
1F
100
AcDbEntity
  8
0
  6
Continuous
 62
     7
370
    25
100
AcDbCircle
 10
13.75
 20
6.5
 30
0.0
 40
0.2499999999999947
  0
CIRCLE
  5
13D
330
1F
100
AcDbEntity
  8
0
  6
Continuous
 62
     7
370
    25
100
AcDbCircle
 10
-27.5
 20
-32.5
 30
0.0
 40
0.2499999999999929
  0
CIRCLE
  5
14A
330
1F
100
AcDbEntity
  8
0
  6
Continuous
 62
     7
370
    25
100
AcDbCircle
 10
-27.5
 20
-19.5
 30
0.0
 40
0.2500000000000036
  0
CIRCLE
  5
157
330
1F
100
AcDbEntity
  8
0
  6
Continuous
 62
     7
370
    25
100
AcDbCircle
 10
-27.5
 20
-6.5
 30
0.0
 40
0.2499999999999973
  0
CIRCLE
  5
164
330
1F
100
AcDbEntity
  8
0
  6
Continuous
 62
     7
370
    25
100
AcDbCircle
 10
-27.5
 20
6.5
 30
0.0
 40
0.2499999999999973
  0
CIRCLE
  5
171
330
1F
100
AcDbEntity
  8
0
  6
Continuous
 62
     7
370
    25
100
AcDbCircle
 10
-27.5
 20
19.5
 30
0.0
 40
0.2500000000000036
  0
CIRCLE
  5
17E
330
1F
100
AcDbEntity
  8
0
  6
Continuous
 62
     7
370
    25
100
AcDbCircle
 10
-27.5
 20
32.5
 30
0.0
 40
0.2500000000000071
  0
CIRCLE
  5
187
330
1F
100
AcDbEntity
  8
0
  6
Continuous
 62
     7
370
    25
100
AcDbCircle
 10
-27.5
 20
45.5
 30
0.0
 40
0.2500000000000071
  0
CIRCLE
  5
194
330
1F
100
AcDbEntity
  8
0
  6
Continuous
 62
     7
370
    25
100
AcDbCircle
 10
-13.75
 20
-32.5
 30
0.0
 40
0.2499999999999929
  0
CIRCLE
  5
1A1
330
1F
100
AcDbEntity
  8
0
  6
Continuous
 62
     7
370
    25
100
AcDbCircle
 10
0.0
 20
-32.5
 30
0.0
 40
0.2499999999999929
  0
CIRCLE
  5
1AE
330
1F
100
AcDbEntity
  8
0
  6
Continuous
 62
     7
370
    25
100
AcDbCircle
 10
13.75
 20
-32.5
 30
0.0
 40
0.2499999999999929
  0
CIRCLE
  5
1BB
330
1F
100
AcDbEntity
  8
0
  6
Continuous
 62
     7
370
    25
100
AcDbCircle
 10
27.5
 20
-32.5
 30
0.0
 40
0.2499999999999929
  0
CIRCLE
  5
1BC
330
1F
100
AcDbEntity
  8
0
  6
Continuous
 62
     7
370
    25
100
AcDbCircle
 10
0.0
 20
-45.5
 30
0.0
 40
0.2500000000000071
  0
CIRCLE
  5
1C9
330
1F
100
AcDbEntity
  8
0
  6
Continuous
 62
     7
370
    25
100
AcDbCircle
 10
13.75
 20
-45.5
 30
0.0
 40
0.2500000000000071
  0
CIRCLE
  5
1D6
330
1F
100
AcDbEntity
  8
0
  6
Continuous
 62
     7
370
    25
100
AcDbCircle
 10
27.5
 20
-45.5
 30
0.0
 40
0.2500000000000071
  0
CIRCLE
  5
1E2
330
1F
100
AcDbEntity
  8
0
  6
Continuous
 62
     7
370
    25
100
AcDbCircle
 10
27.5
 20
-19.5
 30
0.0
 40
0.2500000000000036
  0
CIRCLE
  5
1EE
330
1F
100
AcDbEntity
  8
0
  6
Continuous
 62
     7
370
    25
100
AcDbCircle
 10
-13.75
 20
-6.5
 30
0.0
 40
0.2499999999999938
  0
CIRCLE
  5
1F3
330
1F
100
AcDbEntity
  8
0
  6
Continuous
 62
     7
370
    25
100
AcDbCircle
 10
-13.75
 20
45.5
 30
0.0
 40
0.2499999999999929
  0
CIRCLE
  5
1FD
330
1F
100
AcDbEntity
  8
0
  6
Continuous
 62
     7
370
    25
100
AcDbCircle
 10
0.0
 20
45.5
 30
0.0
 40
0.2499999999999929
  0
CIRCLE
  5
206
330
1F
100
AcDbEntity
  8
0
  6
Continuous
 62
     7
370
    25
100
AcDbCircle
 10
13.75
 20
45.5
 30
0.0
 40
0.2499999999999929
  0
CIRCLE
  5
20E
330
1F
100
AcDbEntity
  8
0
  6
Continuous
 62
     7
370
    25
100
AcDbCircle
 10
27.5
 20
45.5
 30
0.0
 40
0.2500000000000071
  0
CIRCLE
  5
211
330
1F
100
AcDbEntity
  8
0
  6
Continuous
 62
     7
370
    25
100
AcDbCircle
 10
-13.75
 20
6.5
 30
0.0
 40
0.2499999999999938
  0
CIRCLE
  5
215
330
1F
100
AcDbEntity
  8
0
  6
Continuous
 62
     7
370
    25
100
AcDbCircle
 10
0.0
 20
19.5
 30
0.0
 40
0.25
  0
CIRCLE
  5
216
330
1F
100
AcDbEntity
  8
0
  6
Continuous
 62
     7
370
    25
100
AcDbCircle
 10
0.0
 20
19.5
 30
0.0
 40
2.500000000000004
  0
CIRCLE
  5
217
330
1F
100
AcDbEntity
  8
0
  6
Continuous
 62
     7
370
    25
100
AcDbCircle
 10
0.0
 20
6.5
 30
0.0
 40
0.2499999999999938
  0
CIRCLE
  5
218
330
1F
100
AcDbEntity
  8
0
  6
Continuous
 62
     7
370
    25
100
AcDbCircle
 10
0.0
 20
6.5
 30
0.0
 40
2.499999999999999
  0
CIRCLE
  5
219
330
1F
100
AcDbEntity
  8
0
  6
Continuous
 62
     7
370
    25
100
AcDbCircle
 10
0.0
 20
-6.5
 30
0.0
 40
2.499999999999999
  0
CIRCLE
  5
21A
330
1F
100
AcDbEntity
  8
0
  6
Continuous
 62
     7
370
    25
100
AcDbCircle
 10
0.0
 20
-6.5
 30
0.0
 40
0.2499999999999938
  0
CIRCLE
  5
21D
330
1F
100
AcDbEntity
  8
0
  6
Continuous
 62
     7
370
    25
100
AcDbCircle
 10
27.5
 20
6.5
 30
0.0
 40
0.2499999999999973
  0
CIRCLE
  5
21E
330
1F
100
AcDbEntity
  8
0
  6
Continuous
 62
     7
370
    25
100
AcDbCircle
 10
7.5993420768
 20
13.0
 30
0.0
 40
0.2500000000000018
  0
CIRCLE
  5
21F
330
1F
100
AcDbEntity
  8
0
  6
Continuous
 62
     7
370
    25
100
AcDbCircle
 10
7.5993420768
 20
13.0
 30
0.0
 40
2.44125122868018
  0
CIRCLE
  5
228
330
1F
100
AcDbEntity
  8
0
  6
Continuous
 62
     7
370
    25
100
AcDbCircle
 10
-13.75
 20
19.5
 30
0.0
 40
0.25
  0
CIRCLE
  5
235
330
1F
100
AcDbEntity
  8
0
  6
Continuous
 62
     7
370
    25
100
AcDbCircle
 10
13.75
 20
19.5
 30
0.0
 40
0.25
  0
CIRCLE
  5
242
330
1F
100
AcDbEntity
  8
0
  6
Continuous
 62
     7
370
    25
100
AcDbCircle
 10
27.5
 20
19.5
 30
0.0
 40
0.2500000000000036
  0
CIRCLE
  5
24F
330
1F
100
AcDbEntity
  8
0
  6
Continuous
 62
     7
370
    25
100
AcDbCircle
 10
-13.75
 20
32.5
 30
0.0
 40
0.2499999999999929
  0
CIRCLE
  5
25C
330
1F
100
AcDbEntity
  8
0
  6
Continuous
 62
     7
370
    25
100
AcDbCircle
 10
0.0
 20
32.5
 30
0.0
 40
0.2499999999999929
  0
CIRCLE
  5
269
330
1F
100
AcDbEntity
  8
0
  6
Continuous
 62
     7
370
    25
100
AcDbCircle
 10
13.75
 20
32.5
 30
0.0
 40
0.2499999999999929
  0
CIRCLE
  5
276
330
1F
100
AcDbEntity
  8
0
  6
Continuous
 62
     7
370
    25
100
AcDbCircle
 10
27.5
 20
32.5
 30
0.0
 40
0.2500000000000071
  0
CIRCLE
  5
281
330
1F
100
AcDbEntity
  8
0
  6
Continuous
 62
     7
370
    25
100
AcDbCircle
 10
7.5993420768
 20
-14.0
 30
0.0
 40
0.2500000000000018
  0
CIRCLE
  5
282
330
1F
100
AcDbEntity
  8
0
  6
Continuous
 62
     7
370
    25
100
AcDbCircle
 10
7.5993420768
 20
-14.0
 30
0.0
 40
2.441251228680178
  0
CIRCLE
  5
28C
330
1F
100
AcDbEntity
  8
0
  6
Continuous
 62
     7
370
    25
100
AcDbCircle
 10
-7.5993420768
 20
13.0
 30
0.0
 40
0.2500000000000018
  0
CIRCLE
  5
28D
330
1F
100
AcDbEntity
  8
0
  6
Continuous
 62
     7
370
    25
100
AcDbCircle
 10
-7.5993420768
 20
13.0
 30
0.0
 40
2.499999999999998
  0
CIRCLE
  5
28E
330
1F
100
AcDbEntity
  8
0
  6
Continuous
 62
     7
370
    25
100
AcDbCircle
 10
13.75
 20
-19.5
 30
0.0
 40
0.25
  0
CIRCLE
  5
290
330
1F
100
AcDbEntity
  8
0
  6
Continuous
 62
     7
370
    25
100
AcDbCircle
 10
0.0
 20
-19.5
 30
0.0
 40
2.500000000000004
  0
CIRCLE
  5
291
330
1F
100
AcDbEntity
  8
0
  6
Continuous
 62
     7
370
    25
100
AcDbCircle
 10
0.0
 20
-19.5
 30
0.0
 40
0.25
  0
CIRCLE
  5
292
330
1F
100
AcDbEntity
  8
0
  6
Continuous
 62
     7
370
    25
100
AcDbCircle
 10
7.5993420768
 20
-0.5
 30
0.0
 40
2.441251228680178
  0
CIRCLE
  5
293
330
1F
100
AcDbEntity
  8
0
  6
Continuous
 62
     7
370
    25
100
AcDbCircle
 10
7.5993420768
 20
-0.5
 30
0.0
 40
0.2500000000000019
  0
CIRCLE
  5
294
330
1F
100
AcDbEntity
  8
0
  6
Continuous
 62
     7
370
    25
100
AcDbCircle
 10
-7.5993420768
 20
-14.0
 30
0.0
 40
0.25
  0
CIRCLE
  5
295
330
1F
100
AcDbEntity
  8
0
  6
Continuous
 62
     7
370
    25
100
AcDbCircle
 10
-7.5993420768
 20
-14.0
 30
0.0
 40
2.5
  0
CIRCLE
  5
296
330
1F
100
AcDbEntity
  8
0
  6
Continuous
 62
     7
370
    25
100
AcDbCircle
 10
-7.5993420768
 20
-0.5
 30
0.0
 40
0.2500000000000023
  0
CIRCLE
  5
297
330
1F
100
AcDbEntity
  8
0
  6
Continuous
 62
     7
370
    25
100
AcDbCircle
 10
-7.5993420768
 20
-0.5
 30
0.0
 40
2.500000000000004
  0
CIRCLE
  5
29F
330
1F
100
AcDbEntity
  8
0
  6
Continuous
 62
     7
370
    25
100
AcDbCircle
 10
-13.75
 20
-19.5
 30
0.0
 40
0.25
  0
LINE
  5
2A6
330
1F
100
AcDbEntity
  8
0
  6
Continuous
 62
     7
370
    25
100
AcDbLine
 10
10.16
 20
192.8197659
 30
0.0
 11
10.16
 21
192.8691618421
 31
0.0
  0
LINE
  5
2A7
330
1F
100
AcDbEntity
  8
0
  6
Continuous
 62
     7
370
    25
100
AcDbLine
 10
10.16
 20
190.7658889617
 30
0.0
 11
10.16
 21
191.8914489498
 31
0.0
  0
LINE
  5
2A8
330
1F
100
AcDbEntity
  8
0
  6
Continuous
 62
     7
370
    25
100
AcDbLine
 10
10.16
 20
188.7120120234
 30
0.0
 11
10.16
 21
189.8375720116
 31
0.0
  0
LINE
  5
2A9
330
1F
100
AcDbEntity
  8
0
  6
Continuous
 62
     7
370
    25
100
AcDbLine
 10
10.16
 20
186.6581350851
 30
0.0
 11
10.16
 21
187.7836950733
 31
0.0
  0
LINE
  5
2AA
330
1F
100
AcDbEntity
  8
0
  6
Continuous
 62
     7
370
    25
100
AcDbLine
 10
10.16
 20
183.5333575771
 30
0.0
 11
10.16
 21
185.729818135
 31
0.0
  0
LINE
  5
2AB
330
1F
100
AcDbEntity
  8
0
  6
Continuous
 62
     7
370
    25
100
AcDbLine
 10
-10.16
 20
184.7028796658
 30
0.0
 11
-10.16
 21
183.5333575771
 31
0.0
  0
LINE
  5
2AC
330
1F
100
AcDbEntity
  8
0
  6
Continuous
 62
     7
370
    25
100
AcDbLine
 10
-10.16
 20
186.7567566041
 30
0.0
 11
-10.16
 21
185.6311902382
 31
0.0
  0
LINE
  5
2AD
330
1F
100
AcDbEntity
  8
0
  6
Continuous
 62
     7
370
    25
100
AcDbLine
 10
-10.16
 20
188.8106335424
 30
0.0
 11
-10.16
 21
187.6850671765
 31
0.0
  0
LINE
  5
2AE
330
1F
100
AcDbEntity
  8
0
  6
Continuous
 62
     7
370
    25
100
AcDbLine
 10
-10.16
 20
190.8645104807
 30
0.0
 11
-10.16
 21
189.7389441148
 31
0.0
  0
LINE
  5
2AF
330
1F
100
AcDbEntity
  8
0
  6
Continuous
 62
     7
370
    25
100
AcDbLine
 10
-10.16
 20
192.8691618421
 30
0.0
 11
-10.16
 21
191.7928210531
 31
0.0
  0
LINE
  5
2B0
330
1F
100
AcDbEntity
  8
0
  6
Continuous
 62
     7
370
    25
100
AcDbLine
 10
-7.720529077
 20
195.0586498829
 30
0.0
 11
-7.9738533757
 21
194.9560699921
 31
0.0
  0
LINE
  5
2B1
330
1F
100
AcDbEntity
  8
0
  6
Continuous
 62
     7
370
    25
100
AcDbLine
 10
9.0
 20
107.9372791223
 30
0.0
 11
9.0
 21
90.2884079782
 31
0.0
  0
LINE
  5
2B2
330
1F
100
AcDbEntity
  8
0
  6
Continuous
 62
     7
370
    25
100
AcDbLine
 10
-9.0
 20
90.2884079782
 30
0.0
 11
-9.0
 21
107.9372791223
 31
0.0
  0
LINE
  5
2B3
330
1F
100
AcDbEntity
  8
0
  6
Continuous
 62
     7
370
    25
100
AcDbLine
 10
9.5
 20
107.1997087384
 30
0.0
 11
9.5
 21
90.3952610615
 31
0.0
  0
LINE
  5
2B4
330
1F
100
AcDbEntity
  8
0
  6
Continuous
 62
     7
370
    25
100
AcDbLine
 10
-9.5
 20
90.3952610615
 30
0.0
 11
-9.5
 21
107.1997087384
 31
0.0
  0
LINE
  5
2B5
330
1F
100
AcDbEntity
  8
0
  6
Continuous
 62
     7
370
    25
100
AcDbLine
 10
15.0
 20
72.7294524566
 30
0.0
 11
15.0
 21
186.0419332239
 31
0.0
  0
LINE
  5
2B6
330
1F
100
AcDbEntity
  8
0
  6
Continuous
 62
     7
370
    25
100
AcDbLine
 10
-15.0
 20
72.7294524566
 30
0.0
 11
-15.0
 21
186.0419332239
 31
0.0
  0
LINE
  5
2B7
330
1F
100
AcDbEntity
  8
0
  6
Continuous
 62
     7
370
    25
100
AcDbLine
 10
29.5
 20
57.5
 30
0.0
 11
-29.5
 21
57.5
 31
0.0
  0
LINE
  5
2B8
330
1F
100
AcDbEntity
  8
0
  6
Continuous
 62
     7
370
    25
100
AcDbLine
 10
25.531786823
 20
43.531786823
 30
0.0
 11
29.468213177
 21
43.531786823
 31
0.0
  0
LINE
  5
2B9
330
1F
100
AcDbEntity
  8
0
  6
Continuous
 62
     7
370
    25
100
AcDbLine
 10
29.4139967506
 20
47.4139967506
 30
0.0
 11
25.5860032494
 21
47.4139967506
 31
0.0
  0
LINE
  5
2BA
330
1F
100
AcDbEntity
  8
0
  6
Continuous
 62
     7
370
    25
100
AcDbLine
 10
-1.968213177
 20
43.531786823
 30
0.0
 11
1.968213177
 21
43.531786823
 31
0.0
  0
LINE
  5
2BB
330
1F
100
AcDbEntity
  8
0
  6
Continuous
 62
     7
370
    25
100
AcDbLine
 10
1.9139967506
 20
47.4139967506
 30
0.0
 11
-1.9139967506
 21
47.4139967506
 31
0.0
  0
LINE
  5
2BC
330
1F
100
AcDbEntity
  8
0
  6
Continuous
 62
     7
370
    25
100
AcDbLine
 10
-29.468213177
 20
43.531786823
 30
0.0
 11
-25.531786823
 21
43.531786823
 31
0.0
  0
LINE
  5
2BD
330
1F
100
AcDbEntity
  8
0
  6
Continuous
 62
     7
370
    25
100
AcDbLine
 10
-25.5860032494
 20
47.4139967506
 30
0.0
 11
-29.4139967506
 21
47.4139967506
 31
0.0
  0
LINE
  5
2BE
330
1F
100
AcDbEntity
  8
0
  6
Continuous
 62
     7
370
    25
100
AcDbLine
 10
39.5
 20
-47.5
 30
0.0
 11
39.5
 21
47.5
 31
0.0
  0
LINE
  5
2BF
330
1F
100
AcDbEntity
  8
0
  6
Continuous
 62
     7
370
    25
100
AcDbLine
 10
-39.5
 20
37.5
 30
0.0
 11
39.5
 21
37.5
 31
0.0
  0
LINE
  5
2C0
330
1F
100
AcDbEntity
  8
0
  6
Continuous
 62
     7
370
    25
100
AcDbLine
 10
-39.5
 20
-47.5
 30
0.0
 11
-39.5
 21
47.5
 31
0.0
  0
LINE
  5
2C1
330
1F
100
AcDbEntity
  8
0
  6
Continuous
 62
     7
370
    25
100
AcDbLine
 10
-15.718213177
 20
43.531786823
 30
0.0
 11
-11.781786823
 21
43.531786823
 31
0.0
  0
LINE
  5
2C2
330
1F
100
AcDbEntity
  8
0
  6
Continuous
 62
     7
370
    25
100
AcDbLine
 10
-11.8360032494
 20
47.4139967506
 30
0.0
 11
-15.6639967506
 21
47.4139967506
 31
0.0
  0
LINE
  5
2C3
330
1F
100
AcDbEntity
  8
0
  6
Continuous
 62
     7
370
    25
100
AcDbLine
 10
11.781786823
 20
43.531786823
 30
0.0
 11
15.718213177
 21
43.531786823
 31
0.0
  0
LINE
  5
2C4
330
1F
100
AcDbEntity
  8
0
  6
Continuous
 62
     7
370
    25
100
AcDbLine
 10
15.6639967506
 20
47.4139967506
 30
0.0
 11
11.8360032494
 21
47.4139967506
 31
0.0
  0
LINE
  5
2C5
330
1F
100
AcDbEntity
  8
0
  6
Continuous
 62
     7
370
    25
100
AcDbLine
 10
29.1473460386
 20
-4.8526539614
 30
0.0
 11
29.5
 21
-4.5
 31
0.0
  0
LINE
  5
2C6
330
1F
100
AcDbEntity
  8
0
  6
Continuous
 62
     7
370
    25
100
AcDbLine
 10
29.1473460386
 20
-4.8526539614
 30
0.0
 11
25.8526539614
 21
-4.8526539614
 31
0.0
  0
LINE
  5
2C7
330
1F
100
AcDbEntity
  8
0
  6
Continuous
 62
     7
370
    25
100
AcDbLine
 10
25.8526539614
 20
-4.8526539614
 30
0.0
 11
25.5
 21
-4.5
 31
0.0
  0
LINE
  5
2C8
330
1F
100
AcDbEntity
  8
0
  6
Continuous
 62
     7
370
    25
100
AcDbLine
 10
29.5
 20
-4.5
 30
0.0
 11
25.5
 21
-4.5
 31
0.0
  0
LINE
  5
2C9
330
1F
100
AcDbEntity
  8
0
  6
Continuous
 62
     7
370
    25
100
AcDbLine
 10
25.8526539614
 20
-8.1473460386
 30
0.0
 11
25.5
 21
-8.5
 31
0.0
  0
LINE
  5
2CA
330
1F
100
AcDbEntity
  8
0
  6
Continuous
 62
     7
370
    25
100
AcDbLine
 10
25.8526539614
 20
-8.1473460386
 30
0.0
 11
29.1473460386
 21
-8.1473460386
 31
0.0
  0
LINE
  5
2CB
330
1F
100
AcDbEntity
  8
0
  6
Continuous
 62
     7
370
    25
100
AcDbLine
 10
29.1473460386
 20
-8.1473460386
 30
0.0
 11
29.5
 21
-8.5
 31
0.0
  0
LINE
  5
2CC
330
1F
100
AcDbEntity
  8
0
  6
Continuous
 62
     7
370
    25
100
AcDbLine
 10
25.5
 20
-8.5
 30
0.0
 11
29.5
 21
-8.5
 31
0.0
  0
LINE
  5
2CD
330
1F
100
AcDbEntity
  8
0
  6
Continuous
 62
     7
370
    25
100
AcDbLine
 10
15.3973460386
 20
-4.8526539614
 30
0.0
 11
15.75
 21
-4.5
 31
0.0
  0
LINE
  5
2CE
330
1F
100
AcDbEntity
  8
0
  6
Continuous
 62
     7
370
    25
100
AcDbLine
 10
15.3973460386
 20
-4.8526539614
 30
0.0
 11
12.1026539614
 21
-4.8526539614
 31
0.0
  0
LINE
  5
2CF
330
1F
100
AcDbEntity
  8
0
  6
Continuous
 62
     7
370
    25
100
AcDbLine
 10
12.1026539614
 20
-4.8526539614
 30
0.0
 11
11.75
 21
-4.5
 31
0.0
  0
LINE
  5
2D0
330
1F
100
AcDbEntity
  8
0
  6
Continuous
 62
     7
370
    25
100
AcDbLine
 10
15.75
 20
-4.5
 30
0.0
 11
11.75
 21
-4.5
 31
0.0
  0
LINE
  5
2D1
330
1F
100
AcDbEntity
  8
0
  6
Continuous
 62
     7
370
    25
100
AcDbLine
 10
15.3973460386
 20
-8.1473460386
 30
0.0
 11
15.3973460386
 21
-4.8526539614
 31
0.0
  0
LINE
  5
2D2
330
1F
100
AcDbEntity
  8
0
  6
Continuous
 62
     7
370
    25
100
AcDbLine
 10
12.1026539614
 20
-8.1473460386
 30
0.0
 11
15.3973460386
 21
-8.1473460386
 31
0.0
  0
LINE
  5
2D3
330
1F
100
AcDbEntity
  8
0
  6
Continuous
 62
     7
370
    25
100
AcDbLine
 10
12.1026539614
 20
-4.8526539614
 30
0.0
 11
12.1026539614
 21
-8.1473460386
 31
0.0
  0
LINE
  5
2D4
330
1F
100
AcDbEntity
  8
0
  6
Continuous
 62
     7
370
    25
100
AcDbLine
 10
25.8526539614
 20
-4.8526539614
 30
0.0
 11
25.8526539614
 21
-8.1473460386
 31
0.0
  0
LINE
  5
2D5
330
1F
100
AcDbEntity
  8
0
  6
Continuous
 62
     7
370
    25
100
AcDbLine
 10
25.5
 20
-4.5
 30
0.0
 11
25.5
 21
-8.5
 31
0.0
  0
LINE
  5
2D6
330
1F
100
AcDbEntity
  8
0
  6
Continuous
 62
     7
370
    25
100
AcDbLine
 10
-15.3973460386
 20
17.8526539614
 30
0.0
 11
-15.75
 21
17.5
 31
0.0
  0
LINE
  5
2D7
330
1F
100
AcDbEntity
  8
0
  6
Continuous
 62
     7
370
    25
100
AcDbLine
 10
-15.3973460386
 20
17.8526539614
 30
0.0
 11
-12.1026539614
 21
17.8526539614
 31
0.0
  0
LINE
  5
2D8
330
1F
100
AcDbEntity
  8
0
  6
Continuous
 62
     7
370
    25
100
AcDbLine
 10
-12.1026539614
 20
17.8526539614
 30
0.0
 11
-11.75
 21
17.5
 31
0.0
  0
LINE
  5
2D9
330
1F
100
AcDbEntity
  8
0
  6
Continuous
 62
     7
370
    25
100
AcDbLine
 10
-15.75
 20
17.5
 30
0.0
 11
-11.75
 21
17.5
 31
0.0
  0
LINE
  5
2DA
330
1F
100
AcDbEntity
  8
0
  6
Continuous
 62
     7
370
    25
100
AcDbLine
 10
29.1473460386
 20
-8.1473460386
 30
0.0
 11
29.1473460386
 21
-4.8526539614
 31
0.0
  0
LINE
  5
2DB
330
1F
100
AcDbEntity
  8
0
  6
Continuous
 62
     7
370
    25
100
AcDbLine
 10
29.5
 20
-8.5
 30
0.0
 11
29.5
 21
-4.5
 31
0.0
  0
LINE
  5
2DC
330
1F
100
AcDbEntity
  8
0
  6
Continuous
 62
     7
370
    25
100
AcDbLine
 10
-12.1026539614
 20
-8.1473460386
 30
0.0
 11
-11.75
 21
-8.5
 31
0.0
  0
LINE
  5
2DD
330
1F
100
AcDbEntity
  8
0
  6
Continuous
 62
     7
370
    25
100
AcDbLine
 10
-12.1026539614
 20
-8.1473460386
 30
0.0
 11
-12.1026539614
 21
-4.8526539614
 31
0.0
  0
LINE
  5
2DE
330
1F
100
AcDbEntity
  8
0
  6
Continuous
 62
     7
370
    25
100
AcDbLine
 10
-12.1026539614
 20
-4.8526539614
 30
0.0
 11
-11.75
 21
-4.5
 31
0.0
  0
LINE
  5
2DF
330
1F
100
AcDbEntity
  8
0
  6
Continuous
 62
     7
370
    25
100
AcDbLine
 10
-11.75
 20
-8.5
 30
0.0
 11
-11.75
 21
-4.5
 31
0.0
  0
LINE
  5
2E0
330
1F
100
AcDbEntity
  8
0
  6
Continuous
 62
     7
370
    25
100
AcDbLine
 10
-29.1473460386
 20
-47.1473460386
 30
0.0
 11
-29.5
 21
-47.5
 31
0.0
  0
LINE
  5
2E1
330
1F
100
AcDbEntity
  8
0
  6
Continuous
 62
     7
370
    25
100
AcDbLine
 10
-29.1473460386
 20
-47.1473460386
 30
0.0
 11
-25.8526539614
 21
-47.1473460386
 31
0.0
  0
LINE
  5
2E2
330
1F
100
AcDbEntity
  8
0
  6
Continuous
 62
     7
370
    25
100
AcDbLine
 10
-25.8526539614
 20
-47.1473460386
 30
0.0
 11
-25.5
 21
-47.5
 31
0.0
  0
LINE
  5
2E3
330
1F
100
AcDbEntity
  8
0
  6
Continuous
 62
     7
370
    25
100
AcDbLine
 10
-29.5
 20
-47.5
 30
0.0
 11
-25.5
 21
-47.5
 31
0.0
  0
LINE
  5
2E4
330
1F
100
AcDbEntity
  8
0
  6
Continuous
 62
     7
370
    25
100
AcDbLine
 10
-25.8526539614
 20
-47.1473460386
 30
0.0
 11
-25.8526539614
 21
-43.8526539614
 31
0.0
  0
LINE
  5
2E5
330
1F
100
AcDbEntity
  8
0
  6
Continuous
 62
     7
370
    25
100
AcDbLine
 10
-25.8526539614
 20
-43.8526539614
 30
0.0
 11
-25.5
 21
-43.5
 31
0.0
  0
LINE
  5
2E6
330
1F
100
AcDbEntity
  8
0
  6
Continuous
 62
     7
370
    25
100
AcDbLine
 10
-25.5
 20
-47.5
 30
0.0
 11
-25.5
 21
-43.5
 31
0.0
  0
LINE
  5
2E7
330
1F
100
AcDbEntity
  8
0
  6
Continuous
 62
     7
370
    25
100
AcDbLine
 10
-25.8526539614
 20
-43.8526539614
 30
0.0
 11
-29.1473460386
 21
-43.8526539614
 31
0.0
  0
LINE
  5
2E8
330
1F
100
AcDbEntity
  8
0
  6
Continuous
 62
     7
370
    25
100
AcDbLine
 10
-29.1473460386
 20
-43.8526539614
 30
0.0
 11
-29.5
 21
-43.5
 31
0.0
  0
LINE
  5
2E9
330
1F
100
AcDbEntity
  8
0
  6
Continuous
 62
     7
370
    25
100
AcDbLine
 10
-25.5
 20
-43.5
 30
0.0
 11
-29.5
 21
-43.5
 31
0.0
  0
LINE
  5
2EA
330
1F
100
AcDbEntity
  8
0
  6
Continuous
 62
     7
370
    25
100
AcDbLine
 10
-29.1473460386
 20
-43.8526539614
 30
0.0
 11
-29.1473460386
 21
-47.1473460386
 31
0.0
  0
LINE
  5
2EB
330
1F
100
AcDbEntity
  8
0
  6
Continuous
 62
     7
370
    25
100
AcDbLine
 10
-15.3973460386
 20
-43.8526539614
 30
0.0
 11
-15.75
 21
-43.5
 31
0.0
  0
LINE
  5
2EC
330
1F
100
AcDbEntity
  8
0
  6
Continuous
 62
     7
370
    25
100
AcDbLine
 10
-15.3973460386
 20
-43.8526539614
 30
0.0
 11
-15.3973460386
 21
-47.1473460386
 31
0.0
  0
LINE
  5
2ED
330
1F
100
AcDbEntity
  8
0
  6
Continuous
 62
     7
370
    25
100
AcDbLine
 10
-15.3973460386
 20
-47.1473460386
 30
0.0
 11
-15.75
 21
-47.5
 31
0.0
  0
LINE
  5
2EE
330
1F
100
AcDbEntity
  8
0
  6
Continuous
 62
     7
370
    25
100
AcDbLine
 10
-15.75
 20
-43.5
 30
0.0
 11
-15.75
 21
-47.5
 31
0.0
  0
LINE
  5
2EF
330
1F
100
AcDbEntity
  8
0
  6
Continuous
 62
     7
370
    25
100
AcDbLine
 10
-15.3973460386
 20
-47.1473460386
 30
0.0
 11
-12.1026539614
 21
-47.1473460386
 31
0.0
  0
LINE
  5
2F0
330
1F
100
AcDbEntity
  8
0
  6
Continuous
 62
     7
370
    25
100
AcDbLine
 10
-12.1026539614
 20
-47.1473460386
 30
0.0
 11
-11.75
 21
-47.5
 31
0.0
  0
LINE
  5
2F1
330
1F
100
AcDbEntity
  8
0
  6
Continuous
 62
     7
370
    25
100
AcDbLine
 10
-15.75
 20
-47.5
 30
0.0
 11
-11.75
 21
-47.5
 31
0.0
  0
LINE
  5
2F2
330
1F
100
AcDbEntity
  8
0
  6
Continuous
 62
     7
370
    25
100
AcDbLine
 10
-12.1026539614
 20
-47.1473460386
 30
0.0
 11
-12.1026539614
 21
-43.8526539614
 31
0.0
  0
LINE
  5
2F3
330
1F
100
AcDbEntity
  8
0
  6
Continuous
 62
     7
370
    25
100
AcDbLine
 10
-12.1026539614
 20
-43.8526539614
 30
0.0
 11
-11.75
 21
-43.5
 31
0.0
  0
LINE
  5
2F4
330
1F
100
AcDbEntity
  8
0
  6
Continuous
 62
     7
370
    25
100
AcDbLine
 10
-11.75
 20
-47.5
 30
0.0
 11
-11.75
 21
-43.5
 31
0.0
  0
LINE
  5
2F5
330
1F
100
AcDbEntity
  8
0
  6
Continuous
 62
     7
370
    25
100
AcDbLine
 10
12.1026539614
 20
-8.1473460386
 30
0.0
 11
11.75
 21
-8.5
 31
0.0
  0
LINE
  5
2F6
330
1F
100
AcDbEntity
  8
0
  6
Continuous
 62
     7
370
    25
100
AcDbLine
 10
15.3973460386
 20
-8.1473460386
 30
0.0
 11
15.75
 21
-8.5
 31
0.0
  0
LINE
  5
2F7
330
1F
100
AcDbEntity
  8
0
  6
Continuous
 62
     7
370
    25
100
AcDbLine
 10
11.75
 20
-8.5
 30
0.0
 11
15.75
 21
-8.5
 31
0.0
  0
LINE
  5
2F8
330
1F
100
AcDbEntity
  8
0
  6
Continuous
 62
     7
370
    25
100
AcDbLine
 10
-1.6473460386
 20
-43.8526539614
 30
0.0
 11
-2.0
 21
-43.5
 31
0.0
  0
LINE
  5
2F9
330
1F
100
AcDbEntity
  8
0
  6
Continuous
 62
     7
370
    25
100
AcDbLine
 10
-1.6473460386
 20
-43.8526539614
 30
0.0
 11
-1.6473460386
 21
-47.1473460386
 31
0.0
  0
LINE
  5
2FA
330
1F
100
AcDbEntity
  8
0
  6
Continuous
 62
     7
370
    25
100
AcDbLine
 10
-1.6473460386
 20
-47.1473460386
 30
0.0
 11
-2.0
 21
-47.5
 31
0.0
  0
LINE
  5
2FB
330
1F
100
AcDbEntity
  8
0
  6
Continuous
 62
     7
370
    25
100
AcDbLine
 10
-2.0
 20
-43.5
 30
0.0
 11
-2.0
 21
-47.5
 31
0.0
  0
LINE
  5
2FC
330
1F
100
AcDbEntity
  8
0
  6
Continuous
 62
     7
370
    25
100
AcDbLine
 10
-1.6473460386
 20
-47.1473460386
 30
0.0
 11
1.6473460386
 21
-47.1473460386
 31
0.0
  0
LINE
  5
2FD
330
1F
100
AcDbEntity
  8
0
  6
Continuous
 62
     7
370
    25
100
AcDbLine
 10
1.6473460386
 20
-47.1473460386
 30
0.0
 11
2.0
 21
-47.5
 31
0.0
  0
LINE
  5
2FE
330
1F
100
AcDbEntity
  8
0
  6
Continuous
 62
     7
370
    25
100
AcDbLine
 10
-2.0
 20
-47.5
 30
0.0
 11
2.0
 21
-47.5
 31
0.0
  0
LINE
  5
2FF
330
1F
100
AcDbEntity
  8
0
  6
Continuous
 62
     7
370
    25
100
AcDbLine
 10
1.6473460386
 20
-47.1473460386
 30
0.0
 11
1.6473460386
 21
-43.8526539614
 31
0.0
  0
LINE
  5
300
330
1F
100
AcDbEntity
  8
0
  6
Continuous
 62
     7
370
    25
100
AcDbLine
 10
1.6473460386
 20
-43.8526539614
 30
0.0
 11
2.0
 21
-43.5
 31
0.0
  0
LINE
  5
301
330
1F
100
AcDbEntity
  8
0
  6
Continuous
 62
     7
370
    25
100
AcDbLine
 10
2.0
 20
-47.5
 30
0.0
 11
2.0
 21
-43.5
 31
0.0
  0
LINE
  5
302
330
1F
100
AcDbEntity
  8
0
  6
Continuous
 62
     7
370
    25
100
AcDbLine
 10
1.6473460386
 20
-43.8526539614
 30
0.0
 11
-1.6473460386
 21
-43.8526539614
 31
0.0
  0
LINE
  5
303
330
1F
100
AcDbEntity
  8
0
  6
Continuous
 62
     7
370
    25
100
AcDbLine
 10
2.0
 20
-43.5
 30
0.0
 11
-2.0
 21
-43.5
 31
0.0
  0
LINE
  5
304
330
1F
100
AcDbEntity
  8
0
  6
Continuous
 62
     7
370
    25
100
AcDbLine
 10
-15.3973460386
 20
8.1473460386
 30
0.0
 11
-15.75
 21
8.5
 31
0.0
  0
LINE
  5
305
330
1F
100
AcDbEntity
  8
0
  6
Continuous
 62
     7
370
    25
100
AcDbLine
 10
-15.3973460386
 20
8.1473460386
 30
0.0
 11
-15.3973460386
 21
4.8526539614
 31
0.0
  0
LINE
  5
306
330
1F
100
AcDbEntity
  8
0
  6
Continuous
 62
     7
370
    25
100
AcDbLine
 10
-15.3973460386
 20
4.8526539614
 30
0.0
 11
-15.75
 21
4.5
 31
0.0
  0
LINE
  5
307
330
1F
100
AcDbEntity
  8
0
  6
Continuous
 62
     7
370
    25
100
AcDbLine
 10
-15.75
 20
8.5
 30
0.0
 11
-15.75
 21
4.5
 31
0.0
  0
LINE
  5
308
330
1F
100
AcDbEntity
  8
0
  6
Continuous
 62
     7
370
    25
100
AcDbLine
 10
-15.3973460386
 20
4.8526539614
 30
0.0
 11
-12.1026539614
 21
4.8526539614
 31
0.0
  0
LINE
  5
309
330
1F
100
AcDbEntity
  8
0
  6
Continuous
 62
     7
370
    25
100
AcDbLine
 10
-12.1026539614
 20
4.8526539614
 30
0.0
 11
-11.75
 21
4.5
 31
0.0
  0
LINE
  5
30A
330
1F
100
AcDbEntity
  8
0
  6
Continuous
 62
     7
370
    25
100
AcDbLine
 10
-15.75
 20
4.5
 30
0.0
 11
-11.75
 21
4.5
 31
0.0
  0
LINE
  5
30B
330
1F
100
AcDbEntity
  8
0
  6
Continuous
 62
     7
370
    25
100
AcDbLine
 10
-12.1026539614
 20
4.8526539614
 30
0.0
 11
-12.1026539614
 21
8.1473460386
 31
0.0
  0
LINE
  5
30C
330
1F
100
AcDbEntity
  8
0
  6
Continuous
 62
     7
370
    25
100
AcDbLine
 10
-12.1026539614
 20
8.1473460386
 30
0.0
 11
-11.75
 21
8.5
 31
0.0
  0
LINE
  5
30D
330
1F
100
AcDbEntity
  8
0
  6
Continuous
 62
     7
370
    25
100
AcDbLine
 10
-11.75
 20
4.5
 30
0.0
 11
-11.75
 21
8.5
 31
0.0
  0
LINE
  5
30E
330
1F
100
AcDbEntity
  8
0
  6
Continuous
 62
     7
370
    25
100
AcDbLine
 10
-12.1026539614
 20
-43.8526539614
 30
0.0
 11
-15.3973460386
 21
-43.8526539614
 31
0.0
  0
LINE
  5
30F
330
1F
100
AcDbEntity
  8
0
  6
Continuous
 62
     7
370
    25
100
AcDbLine
 10
-11.75
 20
-43.5
 30
0.0
 11
-15.75
 21
-43.5
 31
0.0
  0
LINE
  5
310
330
1F
100
AcDbEntity
  8
0
  6
Continuous
 62
     7
370
    25
100
AcDbLine
 10
-29.5
 20
-43.5
 30
0.0
 11
-29.5
 21
-47.5
 31
0.0
  0
LINE
  5
311
330
1F
100
AcDbEntity
  8
0
  6
Continuous
 62
     7
370
    25
100
AcDbLine
 10
15.3973460386
 20
4.8526539614
 30
0.0
 11
15.75
 21
4.5
 31
0.0
  0
LINE
  5
312
330
1F
100
AcDbEntity
  8
0
  6
Continuous
 62
     7
370
    25
100
AcDbLine
 10
15.3973460386
 20
4.8526539614
 30
0.0
 11
15.3973460386
 21
8.1473460386
 31
0.0
  0
LINE
  5
313
330
1F
100
AcDbEntity
  8
0
  6
Continuous
 62
     7
370
    25
100
AcDbLine
 10
15.3973460386
 20
8.1473460386
 30
0.0
 11
15.75
 21
8.5
 31
0.0
  0
LINE
  5
314
330
1F
100
AcDbEntity
  8
0
  6
Continuous
 62
     7
370
    25
100
AcDbLine
 10
15.75
 20
4.5
 30
0.0
 11
15.75
 21
8.5
 31
0.0
  0
LINE
  5
315
330
1F
100
AcDbEntity
  8
0
  6
Continuous
 62
     7
370
    25
100
AcDbLine
 10
15.3973460386
 20
8.1473460386
 30
0.0
 11
12.1026539614
 21
8.1473460386
 31
0.0
  0
LINE
  5
316
330
1F
100
AcDbEntity
  8
0
  6
Continuous
 62
     7
370
    25
100
AcDbLine
 10
12.1026539614
 20
8.1473460386
 30
0.0
 11
11.75
 21
8.5
 31
0.0
  0
LINE
  5
317
330
1F
100
AcDbEntity
  8
0
  6
Continuous
 62
     7
370
    25
100
AcDbLine
 10
15.75
 20
8.5
 30
0.0
 11
11.75
 21
8.5
 31
0.0
  0
LINE
  5
318
330
1F
100
AcDbEntity
  8
0
  6
Continuous
 62
     7
370
    25
100
AcDbLine
 10
12.1026539614
 20
4.8526539614
 30
0.0
 11
15.3973460386
 21
4.8526539614
 31
0.0
  0
LINE
  5
319
330
1F
100
AcDbEntity
  8
0
  6
Continuous
 62
     7
370
    25
100
AcDbLine
 10
12.1026539614
 20
8.1473460386
 30
0.0
 11
12.1026539614
 21
4.8526539614
 31
0.0
  0
LINE
  5
31A
330
1F
100
AcDbEntity
  8
0
  6
Continuous
 62
     7
370
    25
100
AcDbLine
 10
25.8526539614
 20
8.1473460386
 30
0.0
 11
25.5
 21
8.5
 31
0.0
  0
LINE
  5
31B
330
1F
100
AcDbEntity
  8
0
  6
Continuous
 62
     7
370
    25
100
AcDbLine
 10
25.8526539614
 20
8.1473460386
 30
0.0
 11
25.8526539614
 21
4.8526539614
 31
0.0
  0
LINE
  5
31C
330
1F
100
AcDbEntity
  8
0
  6
Continuous
 62
     7
370
    25
100
AcDbLine
 10
25.8526539614
 20
4.8526539614
 30
0.0
 11
25.5
 21
4.5
 31
0.0
  0
LINE
  5
31D
330
1F
100
AcDbEntity
  8
0
  6
Continuous
 62
     7
370
    25
100
AcDbLine
 10
25.5
 20
8.5
 30
0.0
 11
25.5
 21
4.5
 31
0.0
  0
LINE
  5
31E
330
1F
100
AcDbEntity
  8
0
  6
Continuous
 62
     7
370
    25
100
AcDbLine
 10
25.8526539614
 20
4.8526539614
 30
0.0
 11
29.1473460386
 21
4.8526539614
 31
0.0
  0
LINE
  5
31F
330
1F
100
AcDbEntity
  8
0
  6
Continuous
 62
     7
370
    25
100
AcDbLine
 10
29.1473460386
 20
4.8526539614
 30
0.0
 11
29.5
 21
4.5
 31
0.0
  0
LINE
  5
320
330
1F
100
AcDbEntity
  8
0
  6
Continuous
 62
     7
370
    25
100
AcDbLine
 10
25.5
 20
4.5
 30
0.0
 11
29.5
 21
4.5
 31
0.0
  0
LINE
  5
321
330
1F
100
AcDbEntity
  8
0
  6
Continuous
 62
     7
370
    25
100
AcDbLine
 10
29.1473460386
 20
4.8526539614
 30
0.0
 11
29.1473460386
 21
8.1473460386
 31
0.0
  0
LINE
  5
322
330
1F
100
AcDbEntity
  8
0
  6
Continuous
 62
     7
370
    25
100
AcDbLine
 10
29.1473460386
 20
8.1473460386
 30
0.0
 11
29.5
 21
8.5
 31
0.0
  0
LINE
  5
323
330
1F
100
AcDbEntity
  8
0
  6
Continuous
 62
     7
370
    25
100
AcDbLine
 10
29.5
 20
4.5
 30
0.0
 11
29.5
 21
8.5
 31
0.0
  0
LINE
  5
324
330
1F
100
AcDbEntity
  8
0
  6
Continuous
 62
     7
370
    25
100
AcDbLine
 10
-29.1473460386
 20
-30.8526539614
 30
0.0
 11
-29.5
 21
-30.5
 31
0.0
  0
LINE
  5
325
330
1F
100
AcDbEntity
  8
0
  6
Continuous
 62
     7
370
    25
100
AcDbLine
 10
-29.1473460386
 20
-30.8526539614
 30
0.0
 11
-29.1473460386
 21
-34.1473460386
 31
0.0
  0
LINE
  5
326
330
1F
100
AcDbEntity
  8
0
  6
Continuous
 62
     7
370
    25
100
AcDbLine
 10
-29.1473460386
 20
-34.1473460386
 30
0.0
 11
-29.5
 21
-34.5
 31
0.0
  0
LINE
  5
327
330
1F
100
AcDbEntity
  8
0
  6
Continuous
 62
     7
370
    25
100
AcDbLine
 10
-29.5
 20
-30.5
 30
0.0
 11
-29.5
 21
-34.5
 31
0.0
  0
LINE
  5
328
330
1F
100
AcDbEntity
  8
0
  6
Continuous
 62
     7
370
    25
100
AcDbLine
 10
-29.1473460386
 20
-34.1473460386
 30
0.0
 11
-25.8526539614
 21
-34.1473460386
 31
0.0
  0
LINE
  5
329
330
1F
100
AcDbEntity
  8
0
  6
Continuous
 62
     7
370
    25
100
AcDbLine
 10
-25.8526539614
 20
-34.1473460386
 30
0.0
 11
-25.5
 21
-34.5
 31
0.0
  0
LINE
  5
32A
330
1F
100
AcDbEntity
  8
0
  6
Continuous
 62
     7
370
    25
100
AcDbLine
 10
-29.5
 20
-34.5
 30
0.0
 11
-25.5
 21
-34.5
 31
0.0
  0
LINE
  5
32B
330
1F
100
AcDbEntity
  8
0
  6
Continuous
 62
     7
370
    25
100
AcDbLine
 10
-25.8526539614
 20
-34.1473460386
 30
0.0
 11
-25.8526539614
 21
-30.8526539614
 31
0.0
  0
LINE
  5
32C
330
1F
100
AcDbEntity
  8
0
  6
Continuous
 62
     7
370
    25
100
AcDbLine
 10
-25.8526539614
 20
-30.8526539614
 30
0.0
 11
-25.5
 21
-30.5
 31
0.0
  0
LINE
  5
32D
330
1F
100
AcDbEntity
  8
0
  6
Continuous
 62
     7
370
    25
100
AcDbLine
 10
-25.5
 20
-34.5
 30
0.0
 11
-25.5
 21
-30.5
 31
0.0
  0
LINE
  5
32E
330
1F
100
AcDbEntity
  8
0
  6
Continuous
 62
     7
370
    25
100
AcDbLine
 10
-25.8526539614
 20
-30.8526539614
 30
0.0
 11
-29.1473460386
 21
-30.8526539614
 31
0.0
  0
LINE
  5
32F
330
1F
100
AcDbEntity
  8
0
  6
Continuous
 62
     7
370
    25
100
AcDbLine
 10
-25.5
 20
-30.5
 30
0.0
 11
-29.5
 21
-30.5
 31
0.0
  0
LINE
  5
330
330
1F
100
AcDbEntity
  8
0
  6
Continuous
 62
     7
370
    25
100
AcDbLine
 10
-29.1473460386
 20
-17.8526539614
 30
0.0
 11
-29.5
 21
-17.5
 31
0.0
  0
LINE
  5
331
330
1F
100
AcDbEntity
  8
0
  6
Continuous
 62
     7
370
    25
100
AcDbLine
 10
-29.1473460386
 20
-17.8526539614
 30
0.0
 11
-29.1473460386
 21
-21.1473460386
 31
0.0
  0
LINE
  5
332
330
1F
100
AcDbEntity
  8
0
  6
Continuous
 62
     7
370
    25
100
AcDbLine
 10
-29.1473460386
 20
-21.1473460386
 30
0.0
 11
-29.5
 21
-21.5
 31
0.0
  0
LINE
  5
333
330
1F
100
AcDbEntity
  8
0
  6
Continuous
 62
     7
370
    25
100
AcDbLine
 10
-29.5
 20
-17.5
 30
0.0
 11
-29.5
 21
-21.5
 31
0.0
  0
LINE
  5
334
330
1F
100
AcDbEntity
  8
0
  6
Continuous
 62
     7
370
    25
100
AcDbLine
 10
-29.1473460386
 20
-21.1473460386
 30
0.0
 11
-25.8526539614
 21
-21.1473460386
 31
0.0
  0
LINE
  5
335
330
1F
100
AcDbEntity
  8
0
  6
Continuous
 62
     7
370
    25
100
AcDbLine
 10
-25.8526539614
 20
-21.1473460386
 30
0.0
 11
-25.5
 21
-21.5
 31
0.0
  0
LINE
  5
336
330
1F
100
AcDbEntity
  8
0
  6
Continuous
 62
     7
370
    25
100
AcDbLine
 10
-29.5
 20
-21.5
 30
0.0
 11
-25.5
 21
-21.5
 31
0.0
  0
LINE
  5
337
330
1F
100
AcDbEntity
  8
0
  6
Continuous
 62
     7
370
    25
100
AcDbLine
 10
-25.8526539614
 20
-21.1473460386
 30
0.0
 11
-25.8526539614
 21
-17.8526539614
 31
0.0
  0
LINE
  5
338
330
1F
100
AcDbEntity
  8
0
  6
Continuous
 62
     7
370
    25
100
AcDbLine
 10
-25.8526539614
 20
-17.8526539614
 30
0.0
 11
-25.5
 21
-17.5
 31
0.0
  0
LINE
  5
339
330
1F
100
AcDbEntity
  8
0
  6
Continuous
 62
     7
370
    25
100
AcDbLine
 10
-25.5
 20
-21.5
 30
0.0
 11
-25.5
 21
-17.5
 31
0.0
  0
LINE
  5
33A
330
1F
100
AcDbEntity
  8
0
  6
Continuous
 62
     7
370
    25
100
AcDbLine
 10
-25.8526539614
 20
-17.8526539614
 30
0.0
 11
-29.1473460386
 21
-17.8526539614
 31
0.0
  0
LINE
  5
33B
330
1F
100
AcDbEntity
  8
0
  6
Continuous
 62
     7
370
    25
100
AcDbLine
 10
-25.5
 20
-17.5
 30
0.0
 11
-29.5
 21
-17.5
 31
0.0
  0
LINE
  5
33C
330
1F
100
AcDbEntity
  8
0
  6
Continuous
 62
     7
370
    25
100
AcDbLine
 10
-29.1473460386
 20
-4.8526539614
 30
0.0
 11
-29.5
 21
-4.5
 31
0.0
  0
LINE
  5
33D
330
1F
100
AcDbEntity
  8
0
  6
Continuous
 62
     7
370
    25
100
AcDbLine
 10
-29.1473460386
 20
-4.8526539614
 30
0.0
 11
-29.1473460386
 21
-8.1473460386
 31
0.0
  0
LINE
  5
33E
330
1F
100
AcDbEntity
  8
0
  6
Continuous
 62
     7
370
    25
100
AcDbLine
 10
-29.1473460386
 20
-8.1473460386
 30
0.0
 11
-29.5
 21
-8.5
 31
0.0
  0
LINE
  5
33F
330
1F
100
AcDbEntity
  8
0
  6
Continuous
 62
     7
370
    25
100
AcDbLine
 10
-29.5
 20
-4.5
 30
0.0
 11
-29.5
 21
-8.5
 31
0.0
  0
LINE
  5
340
330
1F
100
AcDbEntity
  8
0
  6
Continuous
 62
     7
370
    25
100
AcDbLine
 10
-29.1473460386
 20
-8.1473460386
 30
0.0
 11
-25.8526539614
 21
-8.1473460386
 31
0.0
  0
LINE
  5
341
330
1F
100
AcDbEntity
  8
0
  6
Continuous
 62
     7
370
    25
100
AcDbLine
 10
-25.8526539614
 20
-8.1473460386
 30
0.0
 11
-25.5
 21
-8.5
 31
0.0
  0
LINE
  5
342
330
1F
100
AcDbEntity
  8
0
  6
Continuous
 62
     7
370
    25
100
AcDbLine
 10
-29.5
 20
-8.5
 30
0.0
 11
-25.5
 21
-8.5
 31
0.0
  0
LINE
  5
343
330
1F
100
AcDbEntity
  8
0
  6
Continuous
 62
     7
370
    25
100
AcDbLine
 10
-25.8526539614
 20
-8.1473460386
 30
0.0
 11
-25.8526539614
 21
-4.8526539614
 31
0.0
  0
LINE
  5
344
330
1F
100
AcDbEntity
  8
0
  6
Continuous
 62
     7
370
    25
100
AcDbLine
 10
-25.8526539614
 20
-4.8526539614
 30
0.0
 11
-25.5
 21
-4.5
 31
0.0
  0
LINE
  5
345
330
1F
100
AcDbEntity
  8
0
  6
Continuous
 62
     7
370
    25
100
AcDbLine
 10
-25.5
 20
-8.5
 30
0.0
 11
-25.5
 21
-4.5
 31
0.0
  0
LINE
  5
346
330
1F
100
AcDbEntity
  8
0
  6
Continuous
 62
     7
370
    25
100
AcDbLine
 10
-25.8526539614
 20
-4.8526539614
 30
0.0
 11
-29.1473460386
 21
-4.8526539614
 31
0.0
  0
LINE
  5
347
330
1F
100
AcDbEntity
  8
0
  6
Continuous
 62
     7
370
    25
100
AcDbLine
 10
-25.5
 20
-4.5
 30
0.0
 11
-29.5
 21
-4.5
 31
0.0
  0
LINE
  5
348
330
1F
100
AcDbEntity
  8
0
  6
Continuous
 62
     7
370
    25
100
AcDbLine
 10
-29.1473460386
 20
8.1473460386
 30
0.0
 11
-29.5
 21
8.5
 31
0.0
  0
LINE
  5
349
330
1F
100
AcDbEntity
  8
0
  6
Continuous
 62
     7
370
    25
100
AcDbLine
 10
-29.1473460386
 20
8.1473460386
 30
0.0
 11
-29.1473460386
 21
4.8526539614
 31
0.0
  0
LINE
  5
34A
330
1F
100
AcDbEntity
  8
0
  6
Continuous
 62
     7
370
    25
100
AcDbLine
 10
-29.1473460386
 20
4.8526539614
 30
0.0
 11
-29.5
 21
4.5
 31
0.0
  0
LINE
  5
34B
330
1F
100
AcDbEntity
  8
0
  6
Continuous
 62
     7
370
    25
100
AcDbLine
 10
-29.5
 20
8.5
 30
0.0
 11
-29.5
 21
4.5
 31
0.0
  0
LINE
  5
34C
330
1F
100
AcDbEntity
  8
0
  6
Continuous
 62
     7
370
    25
100
AcDbLine
 10
-29.1473460386
 20
4.8526539614
 30
0.0
 11
-25.8526539614
 21
4.8526539614
 31
0.0
  0
LINE
  5
34D
330
1F
100
AcDbEntity
  8
0
  6
Continuous
 62
     7
370
    25
100
AcDbLine
 10
-25.8526539614
 20
4.8526539614
 30
0.0
 11
-25.5
 21
4.5
 31
0.0
  0
LINE
  5
34E
330
1F
100
AcDbEntity
  8
0
  6
Continuous
 62
     7
370
    25
100
AcDbLine
 10
-29.5
 20
4.5
 30
0.0
 11
-25.5
 21
4.5
 31
0.0
  0
LINE
  5
34F
330
1F
100
AcDbEntity
  8
0
  6
Continuous
 62
     7
370
    25
100
AcDbLine
 10
-25.8526539614
 20
4.8526539614
 30
0.0
 11
-25.8526539614
 21
8.1473460386
 31
0.0
  0
LINE
  5
350
330
1F
100
AcDbEntity
  8
0
  6
Continuous
 62
     7
370
    25
100
AcDbLine
 10
-25.8526539614
 20
8.1473460386
 30
0.0
 11
-25.5
 21
8.5
 31
0.0
  0
LINE
  5
351
330
1F
100
AcDbEntity
  8
0
  6
Continuous
 62
     7
370
    25
100
AcDbLine
 10
-25.5
 20
4.5
 30
0.0
 11
-25.5
 21
8.5
 31
0.0
  0
LINE
  5
352
330
1F
100
AcDbEntity
  8
0
  6
Continuous
 62
     7
370
    25
100
AcDbLine
 10
-25.8526539614
 20
8.1473460386
 30
0.0
 11
-29.1473460386
 21
8.1473460386
 31
0.0
  0
LINE
  5
353
330
1F
100
AcDbEntity
  8
0
  6
Continuous
 62
     7
370
    25
100
AcDbLine
 10
-25.5
 20
8.5
 30
0.0
 11
-29.5
 21
8.5
 31
0.0
  0
LINE
  5
354
330
1F
100
AcDbEntity
  8
0
  6
Continuous
 62
     7
370
    25
100
AcDbLine
 10
-29.1473460386
 20
21.1473460386
 30
0.0
 11
-29.5
 21
21.5
 31
0.0
  0
LINE
  5
355
330
1F
100
AcDbEntity
  8
0
  6
Continuous
 62
     7
370
    25
100
AcDbLine
 10
-29.1473460386
 20
21.1473460386
 30
0.0
 11
-29.1473460386
 21
17.8526539614
 31
0.0
  0
LINE
  5
356
330
1F
100
AcDbEntity
  8
0
  6
Continuous
 62
     7
370
    25
100
AcDbLine
 10
-29.1473460386
 20
17.8526539614
 30
0.0
 11
-29.5
 21
17.5
 31
0.0
  0
LINE
  5
357
330
1F
100
AcDbEntity
  8
0
  6
Continuous
 62
     7
370
    25
100
AcDbLine
 10
-29.5
 20
21.5
 30
0.0
 11
-29.5
 21
17.5
 31
0.0
  0
LINE
  5
358
330
1F
100
AcDbEntity
  8
0
  6
Continuous
 62
     7
370
    25
100
AcDbLine
 10
-29.1473460386
 20
17.8526539614
 30
0.0
 11
-25.8526539614
 21
17.8526539614
 31
0.0
  0
LINE
  5
359
330
1F
100
AcDbEntity
  8
0
  6
Continuous
 62
     7
370
    25
100
AcDbLine
 10
-25.8526539614
 20
17.8526539614
 30
0.0
 11
-25.5
 21
17.5
 31
0.0
  0
LINE
  5
35A
330
1F
100
AcDbEntity
  8
0
  6
Continuous
 62
     7
370
    25
100
AcDbLine
 10
-29.5
 20
17.5
 30
0.0
 11
-25.5
 21
17.5
 31
0.0
  0
LINE
  5
35B
330
1F
100
AcDbEntity
  8
0
  6
Continuous
 62
     7
370
    25
100
AcDbLine
 10
-25.8526539614
 20
17.8526539614
 30
0.0
 11
-25.8526539614
 21
21.1473460386
 31
0.0
  0
LINE
  5
35C
330
1F
100
AcDbEntity
  8
0
  6
Continuous
 62
     7
370
    25
100
AcDbLine
 10
-25.8526539614
 20
21.1473460386
 30
0.0
 11
-25.5
 21
21.5
 31
0.0
  0
LINE
  5
35D
330
1F
100
AcDbEntity
  8
0
  6
Continuous
 62
     7
370
    25
100
AcDbLine
 10
-25.5
 20
17.5
 30
0.0
 11
-25.5
 21
21.5
 31
0.0
  0
LINE
  5
35E
330
1F
100
AcDbEntity
  8
0
  6
Continuous
 62
     7
370
    25
100
AcDbLine
 10
-25.8526539614
 20
21.1473460386
 30
0.0
 11
-29.1473460386
 21
21.1473460386
 31
0.0
  0
LINE
  5
35F
330
1F
100
AcDbEntity
  8
0
  6
Continuous
 62
     7
370
    25
100
AcDbLine
 10
-25.5
 20
21.5
 30
0.0
 11
-29.5
 21
21.5
 31
0.0
  0
LINE
  5
360
330
1F
100
AcDbEntity
  8
0
  6
Continuous
 62
     7
370
    25
100
AcDbLine
 10
-29.1473460386
 20
34.1473460386
 30
0.0
 11
-29.5
 21
34.5
 31
0.0
  0
LINE
  5
361
330
1F
100
AcDbEntity
  8
0
  6
Continuous
 62
     7
370
    25
100
AcDbLine
 10
-29.1473460386
 20
34.1473460386
 30
0.0
 11
-29.1473460386
 21
30.8526539614
 31
0.0
  0
LINE
  5
362
330
1F
100
AcDbEntity
  8
0
  6
Continuous
 62
     7
370
    25
100
AcDbLine
 10
-29.1473460386
 20
30.8526539614
 30
0.0
 11
-29.5
 21
30.5
 31
0.0
  0
LINE
  5
363
330
1F
100
AcDbEntity
  8
0
  6
Continuous
 62
     7
370
    25
100
AcDbLine
 10
-29.5
 20
34.5
 30
0.0
 11
-29.5
 21
30.5
 31
0.0
  0
LINE
  5
364
330
1F
100
AcDbEntity
  8
0
  6
Continuous
 62
     7
370
    25
100
AcDbLine
 10
-29.1473460386
 20
30.8526539614
 30
0.0
 11
-25.8526539614
 21
30.8526539614
 31
0.0
  0
LINE
  5
365
330
1F
100
AcDbEntity
  8
0
  6
Continuous
 62
     7
370
    25
100
AcDbLine
 10
-25.8526539614
 20
30.8526539614
 30
0.0
 11
-25.5
 21
30.5
 31
0.0
  0
LINE
  5
366
330
1F
100
AcDbEntity
  8
0
  6
Continuous
 62
     7
370
    25
100
AcDbLine
 10
-29.5
 20
30.5
 30
0.0
 11
-25.5
 21
30.5
 31
0.0
  0
LINE
  5
367
330
1F
100
AcDbEntity
  8
0
  6
Continuous
 62
     7
370
    25
100
AcDbLine
 10
-25.8526539614
 20
30.8526539614
 30
0.0
 11
-25.8526539614
 21
34.1473460386
 31
0.0
  0
LINE
  5
368
330
1F
100
AcDbEntity
  8
0
  6
Continuous
 62
     7
370
    25
100
AcDbLine
 10
-25.8526539614
 20
34.1473460386
 30
0.0
 11
-25.5
 21
34.5
 31
0.0
  0
LINE
  5
369
330
1F
100
AcDbEntity
  8
0
  6
Continuous
 62
     7
370
    25
100
AcDbLine
 10
-25.5
 20
30.5
 30
0.0
 11
-25.5
 21
34.5
 31
0.0
  0
LINE
  5
36A
330
1F
100
AcDbEntity
  8
0
  6
Continuous
 62
     7
370
    25
100
AcDbLine
 10
-25.8526539614
 20
34.1473460386
 30
0.0
 11
-29.1473460386
 21
34.1473460386
 31
0.0
  0
LINE
  5
36B
330
1F
100
AcDbEntity
  8
0
  6
Continuous
 62
     7
370
    25
100
AcDbLine
 10
-25.5
 20
34.5
 30
0.0
 11
-29.5
 21
34.5
 31
0.0
  0
LINE
  5
36C
330
1F
100
AcDbEntity
  8
0
  6
Continuous
 62
     7
370
    25
100
AcDbLine
 10
-29.1473460386
 20
47.1473460386
 30
0.0
 11
-29.1473460386
 21
43.8526539614
 31
0.0
  0
LINE
  5
36D
330
1F
100
AcDbEntity
  8
0
  6
Continuous
 62
     7
370
    25
100
AcDbLine
 10
-29.1473460386
 20
43.8526539614
 30
0.0
 11
-29.468213177
 21
43.531786823
 31
0.0
  0
LINE
  5
36E
330
1F
100
AcDbEntity
  8
0
  6
Continuous
 62
     7
370
    25
100
AcDbLine
 10
-29.1473460386
 20
47.1473460386
 30
0.0
 11
-29.4139967506
 21
47.4139967506
 31
0.0
  0
LINE
  5
36F
330
1F
100
AcDbEntity
  8
0
  6
Continuous
 62
     7
370
    25
100
AcDbLine
 10
-29.1473460386
 20
43.8526539614
 30
0.0
 11
-25.8526539614
 21
43.8526539614
 31
0.0
  0
LINE
  5
370
330
1F
100
AcDbEntity
  8
0
  6
Continuous
 62
     7
370
    25
100
AcDbLine
 10
-25.8526539614
 20
43.8526539614
 30
0.0
 11
-25.531786823
 21
43.531786823
 31
0.0
  0
LINE
  5
371
330
1F
100
AcDbEntity
  8
0
  6
Continuous
 62
     7
370
    25
100
AcDbLine
 10
-25.8526539614
 20
43.8526539614
 30
0.0
 11
-25.8526539614
 21
47.1473460386
 31
0.0
  0
LINE
  5
372
330
1F
100
AcDbEntity
  8
0
  6
Continuous
 62
     7
370
    25
100
AcDbLine
 10
-25.8526539614
 20
47.1473460386
 30
0.0
 11
-25.5860032494
 21
47.4139967506
 31
0.0
  0
LINE
  5
373
330
1F
100
AcDbEntity
  8
0
  6
Continuous
 62
     7
370
    25
100
AcDbLine
 10
-25.8526539614
 20
47.1473460386
 30
0.0
 11
-29.1473460386
 21
47.1473460386
 31
0.0
  0
LINE
  5
374
330
1F
100
AcDbEntity
  8
0
  6
Continuous
 62
     7
370
    25
100
AcDbLine
 10
-15.3973460386
 20
-30.8526539614
 30
0.0
 11
-15.75
 21
-30.5
 31
0.0
  0
LINE
  5
375
330
1F
100
AcDbEntity
  8
0
  6
Continuous
 62
     7
370
    25
100
AcDbLine
 10
-15.3973460386
 20
-30.8526539614
 30
0.0
 11
-15.3973460386
 21
-34.1473460386
 31
0.0
  0
LINE
  5
376
330
1F
100
AcDbEntity
  8
0
  6
Continuous
 62
     7
370
    25
100
AcDbLine
 10
-15.3973460386
 20
-34.1473460386
 30
0.0
 11
-15.75
 21
-34.5
 31
0.0
  0
LINE
  5
377
330
1F
100
AcDbEntity
  8
0
  6
Continuous
 62
     7
370
    25
100
AcDbLine
 10
-15.75
 20
-30.5
 30
0.0
 11
-15.75
 21
-34.5
 31
0.0
  0
LINE
  5
378
330
1F
100
AcDbEntity
  8
0
  6
Continuous
 62
     7
370
    25
100
AcDbLine
 10
-15.3973460386
 20
-34.1473460386
 30
0.0
 11
-12.1026539614
 21
-34.1473460386
 31
0.0
  0
LINE
  5
379
330
1F
100
AcDbEntity
  8
0
  6
Continuous
 62
     7
370
    25
100
AcDbLine
 10
-12.1026539614
 20
-34.1473460386
 30
0.0
 11
-11.75
 21
-34.5
 31
0.0
  0
LINE
  5
37A
330
1F
100
AcDbEntity
  8
0
  6
Continuous
 62
     7
370
    25
100
AcDbLine
 10
-15.75
 20
-34.5
 30
0.0
 11
-11.75
 21
-34.5
 31
0.0
  0
LINE
  5
37B
330
1F
100
AcDbEntity
  8
0
  6
Continuous
 62
     7
370
    25
100
AcDbLine
 10
-12.1026539614
 20
-34.1473460386
 30
0.0
 11
-12.1026539614
 21
-30.8526539614
 31
0.0
  0
LINE
  5
37C
330
1F
100
AcDbEntity
  8
0
  6
Continuous
 62
     7
370
    25
100
AcDbLine
 10
-12.1026539614
 20
-30.8526539614
 30
0.0
 11
-11.75
 21
-30.5
 31
0.0
  0
LINE
  5
37D
330
1F
100
AcDbEntity
  8
0
  6
Continuous
 62
     7
370
    25
100
AcDbLine
 10
-11.75
 20
-34.5
 30
0.0
 11
-11.75
 21
-30.5
 31
0.0
  0
LINE
  5
37E
330
1F
100
AcDbEntity
  8
0
  6
Continuous
 62
     7
370
    25
100
AcDbLine
 10
-12.1026539614
 20
-30.8526539614
 30
0.0
 11
-15.3973460386
 21
-30.8526539614
 31
0.0
  0
LINE
  5
37F
330
1F
100
AcDbEntity
  8
0
  6
Continuous
 62
     7
370
    25
100
AcDbLine
 10
-11.75
 20
-30.5
 30
0.0
 11
-15.75
 21
-30.5
 31
0.0
  0
LINE
  5
380
330
1F
100
AcDbEntity
  8
0
  6
Continuous
 62
     7
370
    25
100
AcDbLine
 10
-1.6473460386
 20
-30.8526539614
 30
0.0
 11
-2.0
 21
-30.5
 31
0.0
  0
LINE
  5
381
330
1F
100
AcDbEntity
  8
0
  6
Continuous
 62
     7
370
    25
100
AcDbLine
 10
-1.6473460386
 20
-30.8526539614
 30
0.0
 11
-1.6473460386
 21
-34.1473460386
 31
0.0
  0
LINE
  5
382
330
1F
100
AcDbEntity
  8
0
  6
Continuous
 62
     7
370
    25
100
AcDbLine
 10
-1.6473460386
 20
-34.1473460386
 30
0.0
 11
-2.0
 21
-34.5
 31
0.0
  0
LINE
  5
383
330
1F
100
AcDbEntity
  8
0
  6
Continuous
 62
     7
370
    25
100
AcDbLine
 10
-2.0
 20
-30.5
 30
0.0
 11
-2.0
 21
-34.5
 31
0.0
  0
LINE
  5
384
330
1F
100
AcDbEntity
  8
0
  6
Continuous
 62
     7
370
    25
100
AcDbLine
 10
-1.6473460386
 20
-34.1473460386
 30
0.0
 11
1.6473460386
 21
-34.1473460386
 31
0.0
  0
LINE
  5
385
330
1F
100
AcDbEntity
  8
0
  6
Continuous
 62
     7
370
    25
100
AcDbLine
 10
1.6473460386
 20
-34.1473460386
 30
0.0
 11
2.0
 21
-34.5
 31
0.0
  0
LINE
  5
386
330
1F
100
AcDbEntity
  8
0
  6
Continuous
 62
     7
370
    25
100
AcDbLine
 10
-2.0
 20
-34.5
 30
0.0
 11
2.0
 21
-34.5
 31
0.0
  0
LINE
  5
387
330
1F
100
AcDbEntity
  8
0
  6
Continuous
 62
     7
370
    25
100
AcDbLine
 10
1.6473460386
 20
-34.1473460386
 30
0.0
 11
1.6473460386
 21
-30.8526539614
 31
0.0
  0
LINE
  5
388
330
1F
100
AcDbEntity
  8
0
  6
Continuous
 62
     7
370
    25
100
AcDbLine
 10
1.6473460386
 20
-30.8526539614
 30
0.0
 11
2.0
 21
-30.5
 31
0.0
  0
LINE
  5
389
330
1F
100
AcDbEntity
  8
0
  6
Continuous
 62
     7
370
    25
100
AcDbLine
 10
2.0
 20
-34.5
 30
0.0
 11
2.0
 21
-30.5
 31
0.0
  0
LINE
  5
38A
330
1F
100
AcDbEntity
  8
0
  6
Continuous
 62
     7
370
    25
100
AcDbLine
 10
1.6473460386
 20
-30.8526539614
 30
0.0
 11
-1.6473460386
 21
-30.8526539614
 31
0.0
  0
LINE
  5
38B
330
1F
100
AcDbEntity
  8
0
  6
Continuous
 62
     7
370
    25
100
AcDbLine
 10
2.0
 20
-30.5
 30
0.0
 11
-2.0
 21
-30.5
 31
0.0
  0
LINE
  5
38C
330
1F
100
AcDbEntity
  8
0
  6
Continuous
 62
     7
370
    25
100
AcDbLine
 10
12.1026539614
 20
-30.8526539614
 30
0.0
 11
11.75
 21
-30.5
 31
0.0
  0
LINE
  5
38D
330
1F
100
AcDbEntity
  8
0
  6
Continuous
 62
     7
370
    25
100
AcDbLine
 10
12.1026539614
 20
-30.8526539614
 30
0.0
 11
12.1026539614
 21
-34.1473460386
 31
0.0
  0
LINE
  5
38E
330
1F
100
AcDbEntity
  8
0
  6
Continuous
 62
     7
370
    25
100
AcDbLine
 10
12.1026539614
 20
-34.1473460386
 30
0.0
 11
11.75
 21
-34.5
 31
0.0
  0
LINE
  5
38F
330
1F
100
AcDbEntity
  8
0
  6
Continuous
 62
     7
370
    25
100
AcDbLine
 10
11.75
 20
-30.5
 30
0.0
 11
11.75
 21
-34.5
 31
0.0
  0
LINE
  5
390
330
1F
100
AcDbEntity
  8
0
  6
Continuous
 62
     7
370
    25
100
AcDbLine
 10
12.1026539614
 20
-34.1473460386
 30
0.0
 11
15.3973460386
 21
-34.1473460386
 31
0.0
  0
LINE
  5
391
330
1F
100
AcDbEntity
  8
0
  6
Continuous
 62
     7
370
    25
100
AcDbLine
 10
15.3973460386
 20
-34.1473460386
 30
0.0
 11
15.75
 21
-34.5
 31
0.0
  0
LINE
  5
392
330
1F
100
AcDbEntity
  8
0
  6
Continuous
 62
     7
370
    25
100
AcDbLine
 10
11.75
 20
-34.5
 30
0.0
 11
15.75
 21
-34.5
 31
0.0
  0
LINE
  5
393
330
1F
100
AcDbEntity
  8
0
  6
Continuous
 62
     7
370
    25
100
AcDbLine
 10
15.3973460386
 20
-34.1473460386
 30
0.0
 11
15.3973460386
 21
-30.8526539614
 31
0.0
  0
LINE
  5
394
330
1F
100
AcDbEntity
  8
0
  6
Continuous
 62
     7
370
    25
100
AcDbLine
 10
15.3973460386
 20
-30.8526539614
 30
0.0
 11
15.75
 21
-30.5
 31
0.0
  0
LINE
  5
395
330
1F
100
AcDbEntity
  8
0
  6
Continuous
 62
     7
370
    25
100
AcDbLine
 10
15.75
 20
-34.5
 30
0.0
 11
15.75
 21
-30.5
 31
0.0
  0
LINE
  5
396
330
1F
100
AcDbEntity
  8
0
  6
Continuous
 62
     7
370
    25
100
AcDbLine
 10
15.3973460386
 20
-30.8526539614
 30
0.0
 11
12.1026539614
 21
-30.8526539614
 31
0.0
  0
LINE
  5
397
330
1F
100
AcDbEntity
  8
0
  6
Continuous
 62
     7
370
    25
100
AcDbLine
 10
15.75
 20
-30.5
 30
0.0
 11
11.75
 21
-30.5
 31
0.0
  0
LINE
  5
398
330
1F
100
AcDbEntity
  8
0
  6
Continuous
 62
     7
370
    25
100
AcDbLine
 10
25.8526539614
 20
-30.8526539614
 30
0.0
 11
25.5
 21
-30.5
 31
0.0
  0
LINE
  5
399
330
1F
100
AcDbEntity
  8
0
  6
Continuous
 62
     7
370
    25
100
AcDbLine
 10
25.8526539614
 20
-30.8526539614
 30
0.0
 11
25.8526539614
 21
-34.1473460386
 31
0.0
  0
LINE
  5
39A
330
1F
100
AcDbEntity
  8
0
  6
Continuous
 62
     7
370
    25
100
AcDbLine
 10
25.8526539614
 20
-34.1473460386
 30
0.0
 11
25.5
 21
-34.5
 31
0.0
  0
LINE
  5
39B
330
1F
100
AcDbEntity
  8
0
  6
Continuous
 62
     7
370
    25
100
AcDbLine
 10
25.5
 20
-30.5
 30
0.0
 11
25.5
 21
-34.5
 31
0.0
  0
LINE
  5
39C
330
1F
100
AcDbEntity
  8
0
  6
Continuous
 62
     7
370
    25
100
AcDbLine
 10
25.8526539614
 20
-34.1473460386
 30
0.0
 11
29.1473460386
 21
-34.1473460386
 31
0.0
  0
LINE
  5
39D
330
1F
100
AcDbEntity
  8
0
  6
Continuous
 62
     7
370
    25
100
AcDbLine
 10
29.1473460386
 20
-34.1473460386
 30
0.0
 11
29.5
 21
-34.5
 31
0.0
  0
LINE
  5
39E
330
1F
100
AcDbEntity
  8
0
  6
Continuous
 62
     7
370
    25
100
AcDbLine
 10
25.5
 20
-34.5
 30
0.0
 11
29.5
 21
-34.5
 31
0.0
  0
LINE
  5
39F
330
1F
100
AcDbEntity
  8
0
  6
Continuous
 62
     7
370
    25
100
AcDbLine
 10
29.1473460386
 20
-34.1473460386
 30
0.0
 11
29.1473460386
 21
-30.8526539614
 31
0.0
  0
LINE
  5
3A0
330
1F
100
AcDbEntity
  8
0
  6
Continuous
 62
     7
370
    25
100
AcDbLine
 10
29.1473460386
 20
-30.8526539614
 30
0.0
 11
29.5
 21
-30.5
 31
0.0
  0
LINE
  5
3A1
330
1F
100
AcDbEntity
  8
0
  6
Continuous
 62
     7
370
    25
100
AcDbLine
 10
29.5
 20
-34.5
 30
0.0
 11
29.5
 21
-30.5
 31
0.0
  0
LINE
  5
3A2
330
1F
100
AcDbEntity
  8
0
  6
Continuous
 62
     7
370
    25
100
AcDbLine
 10
29.1473460386
 20
-30.8526539614
 30
0.0
 11
25.8526539614
 21
-30.8526539614
 31
0.0
  0
LINE
  5
3A3
330
1F
100
AcDbEntity
  8
0
  6
Continuous
 62
     7
370
    25
100
AcDbLine
 10
29.5
 20
-30.5
 30
0.0
 11
25.5
 21
-30.5
 31
0.0
  0
LINE
  5
3A4
330
1F
100
AcDbEntity
  8
0
  6
Continuous
 62
     7
370
    25
100
AcDbLine
 10
12.1026539614
 20
-43.8526539614
 30
0.0
 11
11.75
 21
-43.5
 31
0.0
  0
LINE
  5
3A5
330
1F
100
AcDbEntity
  8
0
  6
Continuous
 62
     7
370
    25
100
AcDbLine
 10
12.1026539614
 20
-43.8526539614
 30
0.0
 11
12.1026539614
 21
-47.1473460386
 31
0.0
  0
LINE
  5
3A6
330
1F
100
AcDbEntity
  8
0
  6
Continuous
 62
     7
370
    25
100
AcDbLine
 10
12.1026539614
 20
-47.1473460386
 30
0.0
 11
11.75
 21
-47.5
 31
0.0
  0
LINE
  5
3A7
330
1F
100
AcDbEntity
  8
0
  6
Continuous
 62
     7
370
    25
100
AcDbLine
 10
11.75
 20
-43.5
 30
0.0
 11
11.75
 21
-47.5
 31
0.0
  0
LINE
  5
3A8
330
1F
100
AcDbEntity
  8
0
  6
Continuous
 62
     7
370
    25
100
AcDbLine
 10
12.1026539614
 20
-47.1473460386
 30
0.0
 11
15.3973460386
 21
-47.1473460386
 31
0.0
  0
LINE
  5
3A9
330
1F
100
AcDbEntity
  8
0
  6
Continuous
 62
     7
370
    25
100
AcDbLine
 10
15.3973460386
 20
-47.1473460386
 30
0.0
 11
15.75
 21
-47.5
 31
0.0
  0
LINE
  5
3AA
330
1F
100
AcDbEntity
  8
0
  6
Continuous
 62
     7
370
    25
100
AcDbLine
 10
11.75
 20
-47.5
 30
0.0
 11
15.75
 21
-47.5
 31
0.0
  0
LINE
  5
3AB
330
1F
100
AcDbEntity
  8
0
  6
Continuous
 62
     7
370
    25
100
AcDbLine
 10
15.3973460386
 20
-47.1473460386
 30
0.0
 11
15.3973460386
 21
-43.8526539614
 31
0.0
  0
LINE
  5
3AC
330
1F
100
AcDbEntity
  8
0
  6
Continuous
 62
     7
370
    25
100
AcDbLine
 10
15.3973460386
 20
-43.8526539614
 30
0.0
 11
15.75
 21
-43.5
 31
0.0
  0
LINE
  5
3AD
330
1F
100
AcDbEntity
  8
0
  6
Continuous
 62
     7
370
    25
100
AcDbLine
 10
15.75
 20
-47.5
 30
0.0
 11
15.75
 21
-43.5
 31
0.0
  0
LINE
  5
3AE
330
1F
100
AcDbEntity
  8
0
  6
Continuous
 62
     7
370
    25
100
AcDbLine
 10
15.3973460386
 20
-43.8526539614
 30
0.0
 11
12.1026539614
 21
-43.8526539614
 31
0.0
  0
LINE
  5
3AF
330
1F
100
AcDbEntity
  8
0
  6
Continuous
 62
     7
370
    25
100
AcDbLine
 10
15.75
 20
-43.5
 30
0.0
 11
11.75
 21
-43.5
 31
0.0
  0
LINE
  5
3B0
330
1F
100
AcDbEntity
  8
0
  6
Continuous
 62
     7
370
    25
100
AcDbLine
 10
25.8526539614
 20
-43.8526539614
 30
0.0
 11
25.5
 21
-43.5
 31
0.0
  0
LINE
  5
3B1
330
1F
100
AcDbEntity
  8
0
  6
Continuous
 62
     7
370
    25
100
AcDbLine
 10
25.8526539614
 20
-43.8526539614
 30
0.0
 11
25.8526539614
 21
-47.1473460386
 31
0.0
  0
LINE
  5
3B2
330
1F
100
AcDbEntity
  8
0
  6
Continuous
 62
     7
370
    25
100
AcDbLine
 10
25.8526539614
 20
-47.1473460386
 30
0.0
 11
25.5
 21
-47.5
 31
0.0
  0
LINE
  5
3B3
330
1F
100
AcDbEntity
  8
0
  6
Continuous
 62
     7
370
    25
100
AcDbLine
 10
25.5
 20
-43.5
 30
0.0
 11
25.5
 21
-47.5
 31
0.0
  0
LINE
  5
3B4
330
1F
100
AcDbEntity
  8
0
  6
Continuous
 62
     7
370
    25
100
AcDbLine
 10
25.8526539614
 20
-47.1473460386
 30
0.0
 11
29.1473460386
 21
-47.1473460386
 31
0.0
  0
LINE
  5
3B5
330
1F
100
AcDbEntity
  8
0
  6
Continuous
 62
     7
370
    25
100
AcDbLine
 10
29.1473460386
 20
-47.1473460386
 30
0.0
 11
29.5
 21
-47.5
 31
0.0
  0
LINE
  5
3B6
330
1F
100
AcDbEntity
  8
0
  6
Continuous
 62
     7
370
    25
100
AcDbLine
 10
25.5
 20
-47.5
 30
0.0
 11
29.5
 21
-47.5
 31
0.0
  0
LINE
  5
3B7
330
1F
100
AcDbEntity
  8
0
  6
Continuous
 62
     7
370
    25
100
AcDbLine
 10
29.1473460386
 20
-47.1473460386
 30
0.0
 11
29.1473460386
 21
-43.8526539614
 31
0.0
  0
LINE
  5
3B8
330
1F
100
AcDbEntity
  8
0
  6
Continuous
 62
     7
370
    25
100
AcDbLine
 10
29.1473460386
 20
-43.8526539614
 30
0.0
 11
29.5
 21
-43.5
 31
0.0
  0
LINE
  5
3B9
330
1F
100
AcDbEntity
  8
0
  6
Continuous
 62
     7
370
    25
100
AcDbLine
 10
29.5
 20
-47.5
 30
0.0
 11
29.5
 21
-43.5
 31
0.0
  0
LINE
  5
3BA
330
1F
100
AcDbEntity
  8
0
  6
Continuous
 62
     7
370
    25
100
AcDbLine
 10
29.1473460386
 20
-43.8526539614
 30
0.0
 11
25.8526539614
 21
-43.8526539614
 31
0.0
  0
LINE
  5
3BB
330
1F
100
AcDbEntity
  8
0
  6
Continuous
 62
     7
370
    25
100
AcDbLine
 10
29.5
 20
-43.5
 30
0.0
 11
25.5
 21
-43.5
 31
0.0
  0
LINE
  5
3BC
330
1F
100
AcDbEntity
  8
0
  6
Continuous
 62
     7
370
    25
100
AcDbLine
 10
25.8526539614
 20
-21.1473460386
 30
0.0
 11
25.5
 21
-21.5
 31
0.0
  0
LINE
  5
3BD
330
1F
100
AcDbEntity
  8
0
  6
Continuous
 62
     7
370
    25
100
AcDbLine
 10
25.8526539614
 20
-21.1473460386
 30
0.0
 11
29.1473460386
 21
-21.1473460386
 31
0.0
  0
LINE
  5
3BE
330
1F
100
AcDbEntity
  8
0
  6
Continuous
 62
     7
370
    25
100
AcDbLine
 10
29.1473460386
 20
-21.1473460386
 30
0.0
 11
29.5
 21
-21.5
 31
0.0
  0
LINE
  5
3BF
330
1F
100
AcDbEntity
  8
0
  6
Continuous
 62
     7
370
    25
100
AcDbLine
 10
25.5
 20
-21.5
 30
0.0
 11
29.5
 21
-21.5
 31
0.0
  0
LINE
  5
3C0
330
1F
100
AcDbEntity
  8
0
  6
Continuous
 62
     7
370
    25
100
AcDbLine
 10
29.1473460386
 20
-21.1473460386
 30
0.0
 11
29.1473460386
 21
-17.8526539614
 31
0.0
  0
LINE
  5
3C1
330
1F
100
AcDbEntity
  8
0
  6
Continuous
 62
     7
370
    25
100
AcDbLine
 10
29.1473460386
 20
-17.8526539614
 30
0.0
 11
29.5
 21
-17.5
 31
0.0
  0
LINE
  5
3C2
330
1F
100
AcDbEntity
  8
0
  6
Continuous
 62
     7
370
    25
100
AcDbLine
 10
29.5
 20
-21.5
 30
0.0
 11
29.5
 21
-17.5
 31
0.0
  0
LINE
  5
3C3
330
1F
100
AcDbEntity
  8
0
  6
Continuous
 62
     7
370
    25
100
AcDbLine
 10
29.1473460386
 20
-17.8526539614
 30
0.0
 11
25.8526539614
 21
-17.8526539614
 31
0.0
  0
LINE
  5
3C4
330
1F
100
AcDbEntity
  8
0
  6
Continuous
 62
     7
370
    25
100
AcDbLine
 10
25.8526539614
 20
-17.8526539614
 30
0.0
 11
25.5
 21
-17.5
 31
0.0
  0
LINE
  5
3C5
330
1F
100
AcDbEntity
  8
0
  6
Continuous
 62
     7
370
    25
100
AcDbLine
 10
29.5
 20
-17.5
 30
0.0
 11
25.5
 21
-17.5
 31
0.0
  0
LINE
  5
3C6
330
1F
100
AcDbEntity
  8
0
  6
Continuous
 62
     7
370
    25
100
AcDbLine
 10
25.8526539614
 20
-17.8526539614
 30
0.0
 11
25.8526539614
 21
-21.1473460386
 31
0.0
  0
LINE
  5
3C7
330
1F
100
AcDbEntity
  8
0
  6
Continuous
 62
     7
370
    25
100
AcDbLine
 10
-15.3973460386
 20
-4.8526539614
 30
0.0
 11
-15.75
 21
-4.5
 31
0.0
  0
LINE
  5
3C8
330
1F
100
AcDbEntity
  8
0
  6
Continuous
 62
     7
370
    25
100
AcDbLine
 10
-15.3973460386
 20
-4.8526539614
 30
0.0
 11
-15.3973460386
 21
-8.1473460386
 31
0.0
  0
LINE
  5
3C9
330
1F
100
AcDbEntity
  8
0
  6
Continuous
 62
     7
370
    25
100
AcDbLine
 10
-15.3973460386
 20
-8.1473460386
 30
0.0
 11
-15.75
 21
-8.5
 31
0.0
  0
LINE
  5
3CA
330
1F
100
AcDbEntity
  8
0
  6
Continuous
 62
     7
370
    25
100
AcDbLine
 10
-15.75
 20
-4.5
 30
0.0
 11
-15.75
 21
-8.5
 31
0.0
  0
LINE
  5
3CB
330
1F
100
AcDbEntity
  8
0
  6
Continuous
 62
     7
370
    25
100
AcDbLine
 10
-15.3973460386
 20
-8.1473460386
 30
0.0
 11
-12.1026539614
 21
-8.1473460386
 31
0.0
  0
LINE
  5
3CC
330
1F
100
AcDbEntity
  8
0
  6
Continuous
 62
     7
370
    25
100
AcDbLine
 10
-15.75
 20
-8.5
 30
0.0
 11
-11.75
 21
-8.5
 31
0.0
  0
LINE
  5
3CD
330
1F
100
AcDbEntity
  8
0
  6
Continuous
 62
     7
370
    25
100
AcDbLine
 10
-15.3973460386
 20
47.1473460386
 30
0.0
 11
-15.3973460386
 21
43.8526539614
 31
0.0
  0
LINE
  5
3CE
330
1F
100
AcDbEntity
  8
0
  6
Continuous
 62
     7
370
    25
100
AcDbLine
 10
-15.3973460386
 20
43.8526539614
 30
0.0
 11
-15.718213177
 21
43.531786823
 31
0.0
  0
LINE
  5
3CF
330
1F
100
AcDbEntity
  8
0
  6
Continuous
 62
     7
370
    25
100
AcDbLine
 10
-15.3973460386
 20
47.1473460386
 30
0.0
 11
-15.6639967506
 21
47.4139967506
 31
0.0
  0
LINE
  5
3D0
330
1F
100
AcDbEntity
  8
0
  6
Continuous
 62
     7
370
    25
100
AcDbLine
 10
-12.1026539614
 20
-4.8526539614
 30
0.0
 11
-15.3973460386
 21
-4.8526539614
 31
0.0
  0
LINE
  5
3D1
330
1F
100
AcDbEntity
  8
0
  6
Continuous
 62
     7
370
    25
100
AcDbLine
 10
-11.75
 20
-4.5
 30
0.0
 11
-15.75
 21
-4.5
 31
0.0
  0
LINE
  5
3D2
330
1F
100
AcDbEntity
  8
0
  6
Continuous
 62
     7
370
    25
100
AcDbLine
 10
11.75
 20
-4.5
 30
0.0
 11
11.75
 21
-8.5
 31
0.0
  0
LINE
  5
3D3
330
1F
100
AcDbEntity
  8
0
  6
Continuous
 62
     7
370
    25
100
AcDbLine
 10
-12.1026539614
 20
47.1473460386
 30
0.0
 11
-15.3973460386
 21
47.1473460386
 31
0.0
  0
LINE
  5
3D4
330
1F
100
AcDbEntity
  8
0
  6
Continuous
 62
     7
370
    25
100
AcDbLine
 10
-12.1026539614
 20
43.8526539614
 30
0.0
 11
-12.1026539614
 21
47.1473460386
 31
0.0
  0
LINE
  5
3D5
330
1F
100
AcDbEntity
  8
0
  6
Continuous
 62
     7
370
    25
100
AcDbLine
 10
-15.3973460386
 20
43.8526539614
 30
0.0
 11
-12.1026539614
 21
43.8526539614
 31
0.0
  0
LINE
  5
3D6
330
1F
100
AcDbEntity
  8
0
  6
Continuous
 62
     7
370
    25
100
AcDbLine
 10
15.75
 20
-8.5
 30
0.0
 11
15.75
 21
-4.5
 31
0.0
  0
LINE
  5
3D7
330
1F
100
AcDbEntity
  8
0
  6
Continuous
 62
     7
370
    25
100
AcDbLine
 10
-1.6473460386
 20
43.8526539614
 30
0.0
 11
1.6473460386
 21
43.8526539614
 31
0.0
  0
LINE
  5
3D8
330
1F
100
AcDbEntity
  8
0
  6
Continuous
 62
     7
370
    25
100
AcDbLine
 10
1.6473460386
 20
43.8526539614
 30
0.0
 11
1.968213177
 21
43.531786823
 31
0.0
  0
LINE
  5
3D9
330
1F
100
AcDbEntity
  8
0
  6
Continuous
 62
     7
370
    25
100
AcDbLine
 10
-1.6473460386
 20
43.8526539614
 30
0.0
 11
-1.968213177
 21
43.531786823
 31
0.0
  0
LINE
  5
3DA
330
1F
100
AcDbEntity
  8
0
  6
Continuous
 62
     7
370
    25
100
AcDbLine
 10
1.6473460386
 20
43.8526539614
 30
0.0
 11
1.6473460386
 21
47.1473460386
 31
0.0
  0
LINE
  5
3DB
330
1F
100
AcDbEntity
  8
0
  6
Continuous
 62
     7
370
    25
100
AcDbLine
 10
1.6473460386
 20
47.1473460386
 30
0.0
 11
1.9139967506
 21
47.4139967506
 31
0.0
  0
LINE
  5
3DC
330
1F
100
AcDbEntity
  8
0
  6
Continuous
 62
     7
370
    25
100
AcDbLine
 10
1.6473460386
 20
47.1473460386
 30
0.0
 11
-1.6473460386
 21
47.1473460386
 31
0.0
  0
LINE
  5
3DD
330
1F
100
AcDbEntity
  8
0
  6
Continuous
 62
     7
370
    25
100
AcDbLine
 10
-1.6473460386
 20
47.1473460386
 30
0.0
 11
-1.9139967506
 21
47.4139967506
 31
0.0
  0
LINE
  5
3DE
330
1F
100
AcDbEntity
  8
0
  6
Continuous
 62
     7
370
    25
100
AcDbLine
 10
-1.6473460386
 20
47.1473460386
 30
0.0
 11
-1.6473460386
 21
43.8526539614
 31
0.0
  0
LINE
  5
3DF
330
1F
100
AcDbEntity
  8
0
  6
Continuous
 62
     7
370
    25
100
AcDbLine
 10
12.1026539614
 20
47.1473460386
 30
0.0
 11
12.1026539614
 21
43.8526539614
 31
0.0
  0
LINE
  5
3E0
330
1F
100
AcDbEntity
  8
0
  6
Continuous
 62
     7
370
    25
100
AcDbLine
 10
12.1026539614
 20
43.8526539614
 30
0.0
 11
11.781786823
 21
43.531786823
 31
0.0
  0
LINE
  5
3E1
330
1F
100
AcDbEntity
  8
0
  6
Continuous
 62
     7
370
    25
100
AcDbLine
 10
12.1026539614
 20
47.1473460386
 30
0.0
 11
11.8360032494
 21
47.4139967506
 31
0.0
  0
LINE
  5
3E2
330
1F
100
AcDbEntity
  8
0
  6
Continuous
 62
     7
370
    25
100
AcDbLine
 10
12.1026539614
 20
43.8526539614
 30
0.0
 11
15.3973460386
 21
43.8526539614
 31
0.0
  0
LINE
  5
3E3
330
1F
100
AcDbEntity
  8
0
  6
Continuous
 62
     7
370
    25
100
AcDbLine
 10
15.3973460386
 20
43.8526539614
 30
0.0
 11
15.718213177
 21
43.531786823
 31
0.0
  0
LINE
  5
3E4
330
1F
100
AcDbEntity
  8
0
  6
Continuous
 62
     7
370
    25
100
AcDbLine
 10
15.3973460386
 20
43.8526539614
 30
0.0
 11
15.3973460386
 21
47.1473460386
 31
0.0
  0
LINE
  5
3E5
330
1F
100
AcDbEntity
  8
0
  6
Continuous
 62
     7
370
    25
100
AcDbLine
 10
15.3973460386
 20
47.1473460386
 30
0.0
 11
15.6639967506
 21
47.4139967506
 31
0.0
  0
LINE
  5
3E6
330
1F
100
AcDbEntity
  8
0
  6
Continuous
 62
     7
370
    25
100
AcDbLine
 10
15.3973460386
 20
47.1473460386
 30
0.0
 11
12.1026539614
 21
47.1473460386
 31
0.0
  0
LINE
  5
3E7
330
1F
100
AcDbEntity
  8
0
  6
Continuous
 62
     7
370
    25
100
AcDbLine
 10
29.1473460386
 20
43.8526539614
 30
0.0
 11
29.1473460386
 21
47.1473460386
 31
0.0
  0
LINE
  5
3E8
330
1F
100
AcDbEntity
  8
0
  6
Continuous
 62
     7
370
    25
100
AcDbLine
 10
29.1473460386
 20
47.1473460386
 30
0.0
 11
29.4139967506
 21
47.4139967506
 31
0.0
  0
LINE
  5
3E9
330
1F
100
AcDbEntity
  8
0
  6
Continuous
 62
     7
370
    25
100
AcDbLine
 10
29.1473460386
 20
43.8526539614
 30
0.0
 11
29.468213177
 21
43.531786823
 31
0.0
  0
LINE
  5
3EA
330
1F
100
AcDbEntity
  8
0
  6
Continuous
 62
     7
370
    25
100
AcDbLine
 10
29.1473460386
 20
47.1473460386
 30
0.0
 11
25.8526539614
 21
47.1473460386
 31
0.0
  0
LINE
  5
3EB
330
1F
100
AcDbEntity
  8
0
  6
Continuous
 62
     7
370
    25
100
AcDbLine
 10
25.8526539614
 20
47.1473460386
 30
0.0
 11
25.5860032494
 21
47.4139967506
 31
0.0
  0
LINE
  5
3EC
330
1F
100
AcDbEntity
  8
0
  6
Continuous
 62
     7
370
    25
100
AcDbLine
 10
25.8526539614
 20
43.8526539614
 30
0.0
 11
29.1473460386
 21
43.8526539614
 31
0.0
  0
LINE
  5
3ED
330
1F
100
AcDbEntity
  8
0
  6
Continuous
 62
     7
370
    25
100
AcDbLine
 10
25.8526539614
 20
47.1473460386
 30
0.0
 11
25.8526539614
 21
43.8526539614
 31
0.0
  0
LINE
  5
3EE
330
1F
100
AcDbEntity
  8
0
  6
Continuous
 62
     7
370
    25
100
AcDbLine
 10
-12.1026539614
 20
8.1473460386
 30
0.0
 11
-15.3973460386
 21
8.1473460386
 31
0.0
  0
LINE
  5
3EF
330
1F
100
AcDbEntity
  8
0
  6
Continuous
 62
     7
370
    25
100
AcDbLine
 10
-11.75
 20
8.5
 30
0.0
 11
-15.75
 21
8.5
 31
0.0
  0
LINE
  5
3F0
330
1F
100
AcDbEntity
  8
0
  6
Continuous
 62
     7
370
    25
100
AcDbLine
 10
12.1026539614
 20
4.8526539614
 30
0.0
 11
11.75
 21
4.5
 31
0.0
  0
LINE
  5
3F1
330
1F
100
AcDbEntity
  8
0
  6
Continuous
 62
     7
370
    25
100
AcDbLine
 10
11.75
 20
8.5
 30
0.0
 11
11.75
 21
4.5
 31
0.0
  0
LINE
  5
3F2
330
1F
100
AcDbEntity
  8
0
  6
Continuous
 62
     7
370
    25
100
AcDbLine
 10
11.75
 20
4.5
 30
0.0
 11
15.75
 21
4.5
 31
0.0
  0
LINE
  5
3F3
330
1F
100
AcDbEntity
  8
0
  6
Continuous
 62
     7
370
    25
100
AcDbLine
 10
29.1473460386
 20
8.1473460386
 30
0.0
 11
25.8526539614
 21
8.1473460386
 31
0.0
  0
LINE
  5
3F4
330
1F
100
AcDbEntity
  8
0
  6
Continuous
 62
     7
370
    25
100
AcDbLine
 10
29.5
 20
8.5
 30
0.0
 11
25.5
 21
8.5
 31
0.0
  0
LINE
  5
3F5
330
1F
100
AcDbEntity
  8
0
  6
Continuous
 62
     7
370
    25
100
AcDbLine
 10
-15.3973460386
 20
21.1473460386
 30
0.0
 11
-15.75
 21
21.5
 31
0.0
  0
LINE
  5
3F6
330
1F
100
AcDbEntity
  8
0
  6
Continuous
 62
     7
370
    25
100
AcDbLine
 10
-15.3973460386
 20
21.1473460386
 30
0.0
 11
-15.3973460386
 21
17.8526539614
 31
0.0
  0
LINE
  5
3F7
330
1F
100
AcDbEntity
  8
0
  6
Continuous
 62
     7
370
    25
100
AcDbLine
 10
-15.75
 20
21.5
 30
0.0
 11
-15.75
 21
17.5
 31
0.0
  0
LINE
  5
3F8
330
1F
100
AcDbEntity
  8
0
  6
Continuous
 62
     7
370
    25
100
AcDbLine
 10
-12.1026539614
 20
17.8526539614
 30
0.0
 11
-12.1026539614
 21
21.1473460386
 31
0.0
  0
LINE
  5
3F9
330
1F
100
AcDbEntity
  8
0
  6
Continuous
 62
     7
370
    25
100
AcDbLine
 10
-12.1026539614
 20
21.1473460386
 30
0.0
 11
-11.75
 21
21.5
 31
0.0
  0
LINE
  5
3FA
330
1F
100
AcDbEntity
  8
0
  6
Continuous
 62
     7
370
    25
100
AcDbLine
 10
-11.75
 20
17.5
 30
0.0
 11
-11.75
 21
21.5
 31
0.0
  0
LINE
  5
3FB
330
1F
100
AcDbEntity
  8
0
  6
Continuous
 62
     7
370
    25
100
AcDbLine
 10
-12.1026539614
 20
21.1473460386
 30
0.0
 11
-15.3973460386
 21
21.1473460386
 31
0.0
  0
LINE
  5
3FC
330
1F
100
AcDbEntity
  8
0
  6
Continuous
 62
     7
370
    25
100
AcDbLine
 10
-11.75
 20
21.5
 30
0.0
 11
-15.75
 21
21.5
 31
0.0
  0
LINE
  5
3FD
330
1F
100
AcDbEntity
  8
0
  6
Continuous
 62
     7
370
    25
100
AcDbLine
 10
12.1026539614
 20
21.1473460386
 30
0.0
 11
11.75
 21
21.5
 31
0.0
  0
LINE
  5
3FE
330
1F
100
AcDbEntity
  8
0
  6
Continuous
 62
     7
370
    25
100
AcDbLine
 10
12.1026539614
 20
21.1473460386
 30
0.0
 11
12.1026539614
 21
17.8526539614
 31
0.0
  0
LINE
  5
3FF
330
1F
100
AcDbEntity
  8
0
  6
Continuous
 62
     7
370
    25
100
AcDbLine
 10
12.1026539614
 20
17.8526539614
 30
0.0
 11
11.75
 21
17.5
 31
0.0
  0
LINE
  5
400
330
1F
100
AcDbEntity
  8
0
  6
Continuous
 62
     7
370
    25
100
AcDbLine
 10
11.75
 20
21.5
 30
0.0
 11
11.75
 21
17.5
 31
0.0
  0
LINE
  5
401
330
1F
100
AcDbEntity
  8
0
  6
Continuous
 62
     7
370
    25
100
AcDbLine
 10
12.1026539614
 20
17.8526539614
 30
0.0
 11
15.3973460386
 21
17.8526539614
 31
0.0
  0
LINE
  5
402
330
1F
100
AcDbEntity
  8
0
  6
Continuous
 62
     7
370
    25
100
AcDbLine
 10
15.3973460386
 20
17.8526539614
 30
0.0
 11
15.75
 21
17.5
 31
0.0
  0
LINE
  5
403
330
1F
100
AcDbEntity
  8
0
  6
Continuous
 62
     7
370
    25
100
AcDbLine
 10
11.75
 20
17.5
 30
0.0
 11
15.75
 21
17.5
 31
0.0
  0
LINE
  5
404
330
1F
100
AcDbEntity
  8
0
  6
Continuous
 62
     7
370
    25
100
AcDbLine
 10
15.3973460386
 20
17.8526539614
 30
0.0
 11
15.3973460386
 21
21.1473460386
 31
0.0
  0
LINE
  5
405
330
1F
100
AcDbEntity
  8
0
  6
Continuous
 62
     7
370
    25
100
AcDbLine
 10
15.3973460386
 20
21.1473460386
 30
0.0
 11
15.75
 21
21.5
 31
0.0
  0
LINE
  5
406
330
1F
100
AcDbEntity
  8
0
  6
Continuous
 62
     7
370
    25
100
AcDbLine
 10
15.75
 20
17.5
 30
0.0
 11
15.75
 21
21.5
 31
0.0
  0
LINE
  5
407
330
1F
100
AcDbEntity
  8
0
  6
Continuous
 62
     7
370
    25
100
AcDbLine
 10
15.3973460386
 20
21.1473460386
 30
0.0
 11
12.1026539614
 21
21.1473460386
 31
0.0
  0
LINE
  5
408
330
1F
100
AcDbEntity
  8
0
  6
Continuous
 62
     7
370
    25
100
AcDbLine
 10
15.75
 20
21.5
 30
0.0
 11
11.75
 21
21.5
 31
0.0
  0
LINE
  5
409
330
1F
100
AcDbEntity
  8
0
  6
Continuous
 62
     7
370
    25
100
AcDbLine
 10
25.8526539614
 20
21.1473460386
 30
0.0
 11
25.5
 21
21.5
 31
0.0
  0
LINE
  5
40A
330
1F
100
AcDbEntity
  8
0
  6
Continuous
 62
     7
370
    25
100
AcDbLine
 10
25.8526539614
 20
21.1473460386
 30
0.0
 11
25.8526539614
 21
17.8526539614
 31
0.0
  0
LINE
  5
40B
330
1F
100
AcDbEntity
  8
0
  6
Continuous
 62
     7
370
    25
100
AcDbLine
 10
25.8526539614
 20
17.8526539614
 30
0.0
 11
25.5
 21
17.5
 31
0.0
  0
LINE
  5
40C
330
1F
100
AcDbEntity
  8
0
  6
Continuous
 62
     7
370
    25
100
AcDbLine
 10
25.5
 20
21.5
 30
0.0
 11
25.5
 21
17.5
 31
0.0
  0
LINE
  5
40D
330
1F
100
AcDbEntity
  8
0
  6
Continuous
 62
     7
370
    25
100
AcDbLine
 10
25.8526539614
 20
17.8526539614
 30
0.0
 11
29.1473460386
 21
17.8526539614
 31
0.0
  0
LINE
  5
40E
330
1F
100
AcDbEntity
  8
0
  6
Continuous
 62
     7
370
    25
100
AcDbLine
 10
29.1473460386
 20
17.8526539614
 30
0.0
 11
29.5
 21
17.5
 31
0.0
  0
LINE
  5
40F
330
1F
100
AcDbEntity
  8
0
  6
Continuous
 62
     7
370
    25
100
AcDbLine
 10
25.5
 20
17.5
 30
0.0
 11
29.5
 21
17.5
 31
0.0
  0
LINE
  5
410
330
1F
100
AcDbEntity
  8
0
  6
Continuous
 62
     7
370
    25
100
AcDbLine
 10
29.1473460386
 20
17.8526539614
 30
0.0
 11
29.1473460386
 21
21.1473460386
 31
0.0
  0
LINE
  5
411
330
1F
100
AcDbEntity
  8
0
  6
Continuous
 62
     7
370
    25
100
AcDbLine
 10
29.1473460386
 20
21.1473460386
 30
0.0
 11
29.5
 21
21.5
 31
0.0
  0
LINE
  5
412
330
1F
100
AcDbEntity
  8
0
  6
Continuous
 62
     7
370
    25
100
AcDbLine
 10
29.5
 20
17.5
 30
0.0
 11
29.5
 21
21.5
 31
0.0
  0
LINE
  5
413
330
1F
100
AcDbEntity
  8
0
  6
Continuous
 62
     7
370
    25
100
AcDbLine
 10
29.1473460386
 20
21.1473460386
 30
0.0
 11
25.8526539614
 21
21.1473460386
 31
0.0
  0
LINE
  5
414
330
1F
100
AcDbEntity
  8
0
  6
Continuous
 62
     7
370
    25
100
AcDbLine
 10
29.5
 20
21.5
 30
0.0
 11
25.5
 21
21.5
 31
0.0
  0
LINE
  5
415
330
1F
100
AcDbEntity
  8
0
  6
Continuous
 62
     7
370
    25
100
AcDbLine
 10
-15.3973460386
 20
34.1473460386
 30
0.0
 11
-15.75
 21
34.5
 31
0.0
  0
LINE
  5
416
330
1F
100
AcDbEntity
  8
0
  6
Continuous
 62
     7
370
    25
100
AcDbLine
 10
-15.3973460386
 20
34.1473460386
 30
0.0
 11
-15.3973460386
 21
30.8526539614
 31
0.0
  0
LINE
  5
417
330
1F
100
AcDbEntity
  8
0
  6
Continuous
 62
     7
370
    25
100
AcDbLine
 10
-15.3973460386
 20
30.8526539614
 30
0.0
 11
-15.75
 21
30.5
 31
0.0
  0
LINE
  5
418
330
1F
100
AcDbEntity
  8
0
  6
Continuous
 62
     7
370
    25
100
AcDbLine
 10
-15.75
 20
34.5
 30
0.0
 11
-15.75
 21
30.5
 31
0.0
  0
LINE
  5
419
330
1F
100
AcDbEntity
  8
0
  6
Continuous
 62
     7
370
    25
100
AcDbLine
 10
-15.3973460386
 20
30.8526539614
 30
0.0
 11
-12.1026539614
 21
30.8526539614
 31
0.0
  0
LINE
  5
41A
330
1F
100
AcDbEntity
  8
0
  6
Continuous
 62
     7
370
    25
100
AcDbLine
 10
-12.1026539614
 20
30.8526539614
 30
0.0
 11
-11.75
 21
30.5
 31
0.0
  0
LINE
  5
41B
330
1F
100
AcDbEntity
  8
0
  6
Continuous
 62
     7
370
    25
100
AcDbLine
 10
-15.75
 20
30.5
 30
0.0
 11
-11.75
 21
30.5
 31
0.0
  0
LINE
  5
41C
330
1F
100
AcDbEntity
  8
0
  6
Continuous
 62
     7
370
    25
100
AcDbLine
 10
-12.1026539614
 20
30.8526539614
 30
0.0
 11
-12.1026539614
 21
34.1473460386
 31
0.0
  0
LINE
  5
41D
330
1F
100
AcDbEntity
  8
0
  6
Continuous
 62
     7
370
    25
100
AcDbLine
 10
-12.1026539614
 20
34.1473460386
 30
0.0
 11
-11.75
 21
34.5
 31
0.0
  0
LINE
  5
41E
330
1F
100
AcDbEntity
  8
0
  6
Continuous
 62
     7
370
    25
100
AcDbLine
 10
-11.75
 20
30.5
 30
0.0
 11
-11.75
 21
34.5
 31
0.0
  0
LINE
  5
41F
330
1F
100
AcDbEntity
  8
0
  6
Continuous
 62
     7
370
    25
100
AcDbLine
 10
-12.1026539614
 20
34.1473460386
 30
0.0
 11
-15.3973460386
 21
34.1473460386
 31
0.0
  0
LINE
  5
420
330
1F
100
AcDbEntity
  8
0
  6
Continuous
 62
     7
370
    25
100
AcDbLine
 10
-11.75
 20
34.5
 30
0.0
 11
-15.75
 21
34.5
 31
0.0
  0
LINE
  5
421
330
1F
100
AcDbEntity
  8
0
  6
Continuous
 62
     7
370
    25
100
AcDbLine
 10
-1.6473460386
 20
34.1473460386
 30
0.0
 11
-2.0
 21
34.5
 31
0.0
  0
LINE
  5
422
330
1F
100
AcDbEntity
  8
0
  6
Continuous
 62
     7
370
    25
100
AcDbLine
 10
-1.6473460386
 20
34.1473460386
 30
0.0
 11
-1.6473460386
 21
30.8526539614
 31
0.0
  0
LINE
  5
423
330
1F
100
AcDbEntity
  8
0
  6
Continuous
 62
     7
370
    25
100
AcDbLine
 10
-1.6473460386
 20
30.8526539614
 30
0.0
 11
-2.0
 21
30.5
 31
0.0
  0
LINE
  5
424
330
1F
100
AcDbEntity
  8
0
  6
Continuous
 62
     7
370
    25
100
AcDbLine
 10
-2.0
 20
34.5
 30
0.0
 11
-2.0
 21
30.5
 31
0.0
  0
LINE
  5
425
330
1F
100
AcDbEntity
  8
0
  6
Continuous
 62
     7
370
    25
100
AcDbLine
 10
-1.6473460386
 20
30.8526539614
 30
0.0
 11
1.6473460386
 21
30.8526539614
 31
0.0
  0
LINE
  5
426
330
1F
100
AcDbEntity
  8
0
  6
Continuous
 62
     7
370
    25
100
AcDbLine
 10
1.6473460386
 20
30.8526539614
 30
0.0
 11
2.0
 21
30.5
 31
0.0
  0
LINE
  5
427
330
1F
100
AcDbEntity
  8
0
  6
Continuous
 62
     7
370
    25
100
AcDbLine
 10
-2.0
 20
30.5
 30
0.0
 11
2.0
 21
30.5
 31
0.0
  0
LINE
  5
428
330
1F
100
AcDbEntity
  8
0
  6
Continuous
 62
     7
370
    25
100
AcDbLine
 10
1.6473460386
 20
30.8526539614
 30
0.0
 11
1.6473460386
 21
34.1473460386
 31
0.0
  0
LINE
  5
429
330
1F
100
AcDbEntity
  8
0
  6
Continuous
 62
     7
370
    25
100
AcDbLine
 10
1.6473460386
 20
34.1473460386
 30
0.0
 11
2.0
 21
34.5
 31
0.0
  0
LINE
  5
42A
330
1F
100
AcDbEntity
  8
0
  6
Continuous
 62
     7
370
    25
100
AcDbLine
 10
2.0
 20
30.5
 30
0.0
 11
2.0
 21
34.5
 31
0.0
  0
LINE
  5
42B
330
1F
100
AcDbEntity
  8
0
  6
Continuous
 62
     7
370
    25
100
AcDbLine
 10
1.6473460386
 20
34.1473460386
 30
0.0
 11
-1.6473460386
 21
34.1473460386
 31
0.0
  0
LINE
  5
42C
330
1F
100
AcDbEntity
  8
0
  6
Continuous
 62
     7
370
    25
100
AcDbLine
 10
2.0
 20
34.5
 30
0.0
 11
-2.0
 21
34.5
 31
0.0
  0
LINE
  5
42D
330
1F
100
AcDbEntity
  8
0
  6
Continuous
 62
     7
370
    25
100
AcDbLine
 10
12.1026539614
 20
34.1473460386
 30
0.0
 11
11.75
 21
34.5
 31
0.0
  0
LINE
  5
42E
330
1F
100
AcDbEntity
  8
0
  6
Continuous
 62
     7
370
    25
100
AcDbLine
 10
12.1026539614
 20
34.1473460386
 30
0.0
 11
12.1026539614
 21
30.8526539614
 31
0.0
  0
LINE
  5
42F
330
1F
100
AcDbEntity
  8
0
  6
Continuous
 62
     7
370
    25
100
AcDbLine
 10
12.1026539614
 20
30.8526539614
 30
0.0
 11
11.75
 21
30.5
 31
0.0
  0
LINE
  5
430
330
1F
100
AcDbEntity
  8
0
  6
Continuous
 62
     7
370
    25
100
AcDbLine
 10
11.75
 20
34.5
 30
0.0
 11
11.75
 21
30.5
 31
0.0
  0
LINE
  5
431
330
1F
100
AcDbEntity
  8
0
  6
Continuous
 62
     7
370
    25
100
AcDbLine
 10
12.1026539614
 20
30.8526539614
 30
0.0
 11
15.3973460386
 21
30.8526539614
 31
0.0
  0
LINE
  5
432
330
1F
100
AcDbEntity
  8
0
  6
Continuous
 62
     7
370
    25
100
AcDbLine
 10
15.3973460386
 20
30.8526539614
 30
0.0
 11
15.75
 21
30.5
 31
0.0
  0
LINE
  5
433
330
1F
100
AcDbEntity
  8
0
  6
Continuous
 62
     7
370
    25
100
AcDbLine
 10
11.75
 20
30.5
 30
0.0
 11
15.75
 21
30.5
 31
0.0
  0
LINE
  5
434
330
1F
100
AcDbEntity
  8
0
  6
Continuous
 62
     7
370
    25
100
AcDbLine
 10
15.3973460386
 20
30.8526539614
 30
0.0
 11
15.3973460386
 21
34.1473460386
 31
0.0
  0
LINE
  5
435
330
1F
100
AcDbEntity
  8
0
  6
Continuous
 62
     7
370
    25
100
AcDbLine
 10
15.3973460386
 20
34.1473460386
 30
0.0
 11
15.75
 21
34.5
 31
0.0
  0
LINE
  5
436
330
1F
100
AcDbEntity
  8
0
  6
Continuous
 62
     7
370
    25
100
AcDbLine
 10
15.75
 20
30.5
 30
0.0
 11
15.75
 21
34.5
 31
0.0
  0
LINE
  5
437
330
1F
100
AcDbEntity
  8
0
  6
Continuous
 62
     7
370
    25
100
AcDbLine
 10
15.3973460386
 20
34.1473460386
 30
0.0
 11
12.1026539614
 21
34.1473460386
 31
0.0
  0
LINE
  5
438
330
1F
100
AcDbEntity
  8
0
  6
Continuous
 62
     7
370
    25
100
AcDbLine
 10
15.75
 20
34.5
 30
0.0
 11
11.75
 21
34.5
 31
0.0
  0
LINE
  5
439
330
1F
100
AcDbEntity
  8
0
  6
Continuous
 62
     7
370
    25
100
AcDbLine
 10
25.8526539614
 20
34.1473460386
 30
0.0
 11
25.5
 21
34.5
 31
0.0
  0
LINE
  5
43A
330
1F
100
AcDbEntity
  8
0
  6
Continuous
 62
     7
370
    25
100
AcDbLine
 10
25.8526539614
 20
34.1473460386
 30
0.0
 11
25.8526539614
 21
30.8526539614
 31
0.0
  0
LINE
  5
43B
330
1F
100
AcDbEntity
  8
0
  6
Continuous
 62
     7
370
    25
100
AcDbLine
 10
25.8526539614
 20
30.8526539614
 30
0.0
 11
25.5
 21
30.5
 31
0.0
  0
LINE
  5
43C
330
1F
100
AcDbEntity
  8
0
  6
Continuous
 62
     7
370
    25
100
AcDbLine
 10
25.5
 20
34.5
 30
0.0
 11
25.5
 21
30.5
 31
0.0
  0
LINE
  5
43D
330
1F
100
AcDbEntity
  8
0
  6
Continuous
 62
     7
370
    25
100
AcDbLine
 10
25.8526539614
 20
30.8526539614
 30
0.0
 11
29.1473460386
 21
30.8526539614
 31
0.0
  0
LINE
  5
43E
330
1F
100
AcDbEntity
  8
0
  6
Continuous
 62
     7
370
    25
100
AcDbLine
 10
29.1473460386
 20
30.8526539614
 30
0.0
 11
29.5
 21
30.5
 31
0.0
  0
LINE
  5
43F
330
1F
100
AcDbEntity
  8
0
  6
Continuous
 62
     7
370
    25
100
AcDbLine
 10
25.5
 20
30.5
 30
0.0
 11
29.5
 21
30.5
 31
0.0
  0
LINE
  5
440
330
1F
100
AcDbEntity
  8
0
  6
Continuous
 62
     7
370
    25
100
AcDbLine
 10
29.1473460386
 20
30.8526539614
 30
0.0
 11
29.1473460386
 21
34.1473460386
 31
0.0
  0
LINE
  5
441
330
1F
100
AcDbEntity
  8
0
  6
Continuous
 62
     7
370
    25
100
AcDbLine
 10
29.1473460386
 20
34.1473460386
 30
0.0
 11
29.5
 21
34.5
 31
0.0
  0
LINE
  5
442
330
1F
100
AcDbEntity
  8
0
  6
Continuous
 62
     7
370
    25
100
AcDbLine
 10
29.5
 20
30.5
 30
0.0
 11
29.5
 21
34.5
 31
0.0
  0
LINE
  5
443
330
1F
100
AcDbEntity
  8
0
  6
Continuous
 62
     7
370
    25
100
AcDbLine
 10
29.1473460386
 20
34.1473460386
 30
0.0
 11
25.8526539614
 21
34.1473460386
 31
0.0
  0
LINE
  5
444
330
1F
100
AcDbEntity
  8
0
  6
Continuous
 62
     7
370
    25
100
AcDbLine
 10
29.5
 20
34.5
 30
0.0
 11
25.5
 21
34.5
 31
0.0
  0
LINE
  5
445
330
1F
100
AcDbEntity
  8
0
  6
Continuous
 62
     7
370
    25
100
AcDbLine
 10
-15.3973460386
 20
-17.8526539614
 30
0.0
 11
-15.75
 21
-17.5
 31
0.0
  0
LINE
  5
446
330
1F
100
AcDbEntity
  8
0
  6
Continuous
 62
     7
370
    25
100
AcDbLine
 10
-15.3973460386
 20
-17.8526539614
 30
0.0
 11
-15.3973460386
 21
-21.1473460386
 31
0.0
  0
LINE
  5
447
330
1F
100
AcDbEntity
  8
0
  6
Continuous
 62
     7
370
    25
100
AcDbLine
 10
-15.3973460386
 20
-21.1473460386
 30
0.0
 11
-15.75
 21
-21.5
 31
0.0
  0
LINE
  5
448
330
1F
100
AcDbEntity
  8
0
  6
Continuous
 62
     7
370
    25
100
AcDbLine
 10
-15.75
 20
-17.5
 30
0.0
 11
-15.75
 21
-21.5
 31
0.0
  0
LINE
  5
449
330
1F
100
AcDbEntity
  8
0
  6
Continuous
 62
     7
370
    25
100
AcDbLine
 10
-12.1026539614
 20
43.8526539614
 30
0.0
 11
-11.781786823
 21
43.531786823
 31
0.0
  0
LINE
  5
44A
330
1F
100
AcDbEntity
  8
0
  6
Continuous
 62
     7
370
    25
100
AcDbLine
 10
-12.1026539614
 20
47.1473460386
 30
0.0
 11
-11.8360032494
 21
47.4139967506
 31
0.0
  0
LINE
  5
44B
330
1F
100
AcDbEntity
  8
0
  6
Continuous
 62
     7
370
    25
100
AcDbLine
 10
15.3973460386
 20
-17.8526539614
 30
0.0
 11
15.75
 21
-17.5
 31
0.0
  0
LINE
  5
44C
330
1F
100
AcDbEntity
  8
0
  6
Continuous
 62
     7
370
    25
100
AcDbLine
 10
15.3973460386
 20
-17.8526539614
 30
0.0
 11
12.1026539614
 21
-17.8526539614
 31
0.0
  0
LINE
  5
44D
330
1F
100
AcDbEntity
  8
0
  6
Continuous
 62
     7
370
    25
100
AcDbLine
 10
12.1026539614
 20
-17.8526539614
 30
0.0
 11
11.75
 21
-17.5
 31
0.0
  0
LINE
  5
44E
330
1F
100
AcDbEntity
  8
0
  6
Continuous
 62
     7
370
    25
100
AcDbLine
 10
15.75
 20
-17.5
 30
0.0
 11
11.75
 21
-17.5
 31
0.0
  0
LINE
  5
44F
330
1F
100
AcDbEntity
  8
0
  6
Continuous
 62
     7
370
    25
100
AcDbLine
 10
25.8526539614
 20
43.8526539614
 30
0.0
 11
25.531786823
 21
43.531786823
 31
0.0
  0
LINE
  5
450
330
1F
100
AcDbEntity
  8
0
  6
Continuous
 62
     7
370
    25
100
AcDbLine
 10
12.1026539614
 20
-17.8526539614
 30
0.0
 11
12.1026539614
 21
-21.1473460386
 31
0.0
  0
LINE
  5
451
330
1F
100
AcDbEntity
  8
0
  6
Continuous
 62
     7
370
    25
100
AcDbLine
 10
12.1026539614
 20
-21.1473460386
 30
0.0
 11
11.75
 21
-21.5
 31
0.0
  0
LINE
  5
452
330
1F
100
AcDbEntity
  8
0
  6
Continuous
 62
     7
370
    25
100
AcDbLine
 10
11.75
 20
-17.5
 30
0.0
 11
11.75
 21
-21.5
 31
0.0
  0
LINE
  5
453
330
1F
100
AcDbEntity
  8
0
  6
Continuous
 62
     7
370
    25
100
AcDbLine
 10
12.1026539614
 20
-21.1473460386
 30
0.0
 11
15.3973460386
 21
-21.1473460386
 31
0.0
  0
LINE
  5
454
330
1F
100
AcDbEntity
  8
0
  6
Continuous
 62
     7
370
    25
100
AcDbLine
 10
15.3973460386
 20
-21.1473460386
 30
0.0
 11
15.75
 21
-21.5
 31
0.0
  0
LINE
  5
455
330
1F
100
AcDbEntity
  8
0
  6
Continuous
 62
     7
370
    25
100
AcDbLine
 10
11.75
 20
-21.5
 30
0.0
 11
15.75
 21
-21.5
 31
0.0
  0
LINE
  5
456
330
1F
100
AcDbEntity
  8
0
  6
Continuous
 62
     7
370
    25
100
AcDbLine
 10
15.3973460386
 20
-21.1473460386
 30
0.0
 11
15.3973460386
 21
-17.8526539614
 31
0.0
  0
LINE
  5
457
330
1F
100
AcDbEntity
  8
0
  6
Continuous
 62
     7
370
    25
100
AcDbLine
 10
15.75
 20
-21.5
 30
0.0
 11
15.75
 21
-17.5
 31
0.0
  0
LINE
  5
458
330
1F
100
AcDbEntity
  8
0
  6
Continuous
 62
     7
370
    25
100
AcDbLine
 10
25.5
 20
-17.5
 30
0.0
 11
25.5
 21
-21.5
 31
0.0
  0
LINE
  5
459
330
1F
100
AcDbEntity
  8
0
  6
Continuous
 62
     7
370
    25
100
AcDbLine
 10
-15.3973460386
 20
-21.1473460386
 30
0.0
 11
-12.1026539614
 21
-21.1473460386
 31
0.0
  0
LINE
  5
45A
330
1F
100
AcDbEntity
  8
0
  6
Continuous
 62
     7
370
    25
100
AcDbLine
 10
-12.1026539614
 20
-21.1473460386
 30
0.0
 11
-11.75
 21
-21.5
 31
0.0
  0
LINE
  5
45B
330
1F
100
AcDbEntity
  8
0
  6
Continuous
 62
     7
370
    25
100
AcDbLine
 10
-15.75
 20
-21.5
 30
0.0
 11
-11.75
 21
-21.5
 31
0.0
  0
LINE
  5
45C
330
1F
100
AcDbEntity
  8
0
  6
Continuous
 62
     7
370
    25
100
AcDbLine
 10
-12.1026539614
 20
-17.8526539614
 30
0.0
 11
-11.75
 21
-17.5
 31
0.0
  0
LINE
  5
45D
330
1F
100
AcDbEntity
  8
0
  6
Continuous
 62
     7
370
    25
100
AcDbLine
 10
-12.1026539614
 20
-17.8526539614
 30
0.0
 11
-15.3973460386
 21
-17.8526539614
 31
0.0
  0
LINE
  5
45E
330
1F
100
AcDbEntity
  8
0
  6
Continuous
 62
     7
370
    25
100
AcDbLine
 10
-11.75
 20
-17.5
 30
0.0
 11
-15.75
 21
-17.5
 31
0.0
  0
LINE
  5
45F
330
1F
100
AcDbEntity
  8
0
  6
Continuous
 62
     7
370
    25
100
AcDbLine
 10
-12.1026539614
 20
-21.1473460386
 30
0.0
 11
-12.1026539614
 21
-17.8526539614
 31
0.0
  0
LINE
  5
460
330
1F
100
AcDbEntity
  8
0
  6
Continuous
 62
     7
370
    25
100
AcDbLine
 10
-11.75
 20
-21.5
 30
0.0
 11
-11.75
 21
-17.5
 31
0.0
  0
LINE
  5
461
330
1F
100
AcDbEntity
  8
0
  6
Continuous
 62
     7
370
    25
100
AcDbLine
 10
-29.5
 20
-57.5
 30
0.0
 11
29.5
 21
-57.5
 31
0.0
  0
ARC
  5
462
330
1F
100
AcDbEntity
  8
0
  6
Continuous
 62
     7
370
    25
100
AcDbCircle
 10
5.3926500655
 20
166.9801301851
 30
0.0
 40
21.34604197167297
100
AcDbArc
 50
63.2514135697
 51
76.9464659993
  0
ARC
  5
463
330
1F
100
AcDbEntity
  8
0
  6
Continuous
 62
     7
370
    25
100
AcDbCircle
 10
-5.3506880087
 20
166.8815932809
 30
0.0
 40
21.45292168068532
100
AcDbArc
 50
102.8151932543
 51
116.7302183908
  0
ARC
  5
464
330
1F
100
AcDbEntity
  8
0
  6
Continuous
 62
     7
370
    25
100
AcDbCircle
 10
-29.5
 20
-47.5
 30
0.0
 40
10.00000000000005
100
AcDbArc
 50
180.0
 51
270.0
  0
ARC
  5
465
330
1F
100
AcDbEntity
  8
0
  6
Continuous
 62
     7
370
    25
100
AcDbCircle
 10
29.5
 20
-47.5
 30
0.0
 40
10.00000000000004
100
AcDbArc
 50
270.0
 51
0.0
  0
SPLINE
  5
469
330
1B
100
AcDbEntity
 67
     1
  8
0
  6
Continuous
 62
     7
370
    25
100
AcDbSpline
210
0.0
220
0.0
230
1.0
 70
     8
 71
     3
 72
    11
 73
     7
 74
     0
 42
0.000000001
 43
0.00000001
 40
0.0
 40
0.0
 40
0.0
 40
0.0
 40
0.2509631333618109
 40
0.5009917532139238
 40
0.7500594642300157
 40
1.0
 40
1.0
 40
1.0
 40
1.0
 10
-57.49999999999999
 20
-0.0999999999997669
 30
0.0
 10
-47.88226148383831
 20
-0.3973371141956471
 30
0.0
 10
-28.68259810452325
 20
-0.9909041458990748
 30
0.0
 10
0.0650312260726538
 20
-1.798294641829082
 30
0.0
 10
28.7840464513777
 20
-2.147345749937441
 30
0.0
 10
47.91686029620711
 20
-2.049172488870404
 30
0.0
 10
57.50000000174007
 20
-1.999999999983862
 30
0.0
  0
SPLINE
  5
46A
330
1B
100
AcDbEntity
 67
     1
  8
0
  6
Continuous
 62
     7
370
    25
100
AcDbSpline
210
0.0
220
0.0
230
1.0
 70
     8
 71
     3
 72
    11
 73
     7
 74
     0
 42
0.000000001
 43
0.00000001
 40
0.0
 40
0.0
 40
0.0
 40
0.0
 40
0.2546336134662192
 40
0.5046800838591222
 40
0.7525141878422253
 40
1.0
 40
1.0
 40
1.0
 40
1.0
 10
69.86250886026745
 20
28.31269743881865
 30
0.0
 10
69.61415217807183
 20
27.36493403778045
 30
0.0
 10
69.12191287984541
 20
25.48648089012472
 30
0.0
 10
67.74743560972483
 20
22.92463555756343
 30
0.0
 10
66.0069106647591
 20
20.63159632198394
 30
0.0
 10
64.53861734221333
 20
19.41708508622711
 30
0.0
 10
63.80498690746875
 20
18.81025646948614
 30
0.0
  0
SPLINE
  5
46B
330
1B
100
AcDbEntity
 67
     1
  8
0
  6
Continuous
 62
     7
370
    25
100
AcDbSpline
210
0.0
220
0.0
230
1.0
 70
     8
 71
     3
 72
    15
 73
    11
 74
     0
 42
0.000000001
 43
0.00000001
 40
0.0
 40
0.0
 40
0.0
 40
0.0
 40
0.1297391731219028
 40
0.2508303894656284
 40
0.3655459449910453
 40
0.4746343257251901
 40
0.5782265297408059
 40
0.7381252505630804
 40
0.8800653376743599
 40
1.0
 40
1.0
 40
1.0
 40
1.0
 10
63.80498690746875
 20
18.81025646948614
 30
0.0
 10
63.59098541854284
 20
18.67088637250334
 30
0.0
 10
63.17724702695416
 20
18.40143609881297
 30
0.0
 10
62.22586143621902
 20
17.95247432452984
 30
0.0
 10
61.25257886276749
 20
17.54088181702295
 30
0.0
 10
60.32387548613498
 20
17.17560972311873
 30
0.0
 10
59.34457623227998
 20
16.80246065075155
 30
0.0
 10
58.46087049150739
 20
16.46314717206481
 30
0.0
 10
57.80306419915949
 20
16.19061274467015
 30
0.0
 10
57.59519907385571
 20
16.05987561977964
 30
0.0
 10
57.50000000000001
 20
16.00000000000002
 30
0.0
  0
SPLINE
  5
46C
330
1B
100
AcDbEntity
 67
     1
  8
0
  6
Continuous
 62
     7
370
    25
100
AcDbSpline
210
0.0
220
0.0
230
1.0
 70
     8
 71
     3
 72
    16
 73
    12
 74
     0
 42
0.000000001
 43
0.00000001
 40
0.0
 40
0.0
 40
0.0
 40
0.0
 40
0.1290632572568592
 40
0.2383271110787265
 40
0.327820087725155
 40
0.3975580836187319
 40
0.4524895663139315
 40
0.542847977828458
 40
0.6641966055286482
 40
0.8165608531302346
 40
1.0
 40
1.0
 40
1.0
 40
1.0
 10
57.50000000068377
 20
-2.000000147402079
 30
0.0
 10
58.50055428381679
 20
-1.984083737696943
 30
0.0
 10
60.3481692971429
 20
-1.954692631162103
 30
0.0
 10
62.88762867218248
 20
-1.843846183195354
 30
0.0
 10
64.96559596843088
 20
-1.719006131378205
 30
0.0
 10
66.62142962089322
 20
-1.595052745680975
 30
0.0
 10
68.28242600714624
 20
-1.452029867633584
 30
0.0
 10
70.33970056260895
 20
-1.247907935601158
 30
0.0
 10
73.14271577867243
 20
-0.9142315370995989
 30
0.0
 10
76.65259723559248
 20
-0.4160278555207404
 30
0.0
 10
79.21421418088632
 20
0.0504577778700291
 30
0.0
 10
80.6135473466263
 20
0.3052846439025175
 30
0.0
  0
SPLINE
  5
470
330
1B
100
AcDbEntity
 67
     1
  8
0
  6
Continuous
 62
     7
370
    25
100
AcDbSpline
210
0.0
220
0.0
230
1.0
 70
     8
 71
     3
 72
     9
 73
     5
 74
     0
 42
0.000000001
 43
0.00000001
 40
0.0
 40
0.0
 40
0.0
 40
0.0
 40
0.4999865439913569
 40
1.0
 40
1.0
 40
1.0
 40
1.0
 10
194.0702589302542
 20
50.0612027887009
 30
0.0
 10
194.1987050841539
 20
49.95794872408774
 30
0.0
 10
194.4556043056294
 20
49.75143503716151
 30
0.0
 10
194.7125583112481
 20
49.54474044347322
 30
0.0
 10
194.8410387716328
 20
49.44139036534484
 30
0.0
  0
SPLINE
  5
471
330
1B
100
AcDbEntity
 67
     1
  8
0
  6
Continuous
 62
     7
370
    25
100
AcDbSpline
210
0.0
220
0.0
230
1.0
 70
     8
 71
     3
 72
     9
 73
     5
 74
     0
 42
0.000000001
 43
0.00000001
 40
0.0
 40
0.0
 40
0.0
 40
0.0
 40
0.4999865439913366
 40
1.0
 40
1.0
 40
1.0
 40
1.0
 10
192.0163819919604
 20
49.27279329970125
 30
0.0
 10
192.14482814586
 20
49.1695392350881
 30
0.0
 10
192.4017273673356
 20
48.96302554816186
 30
0.0
 10
192.6586813729542
 20
48.75633095447358
 30
0.0
 10
192.7871618333389
 20
48.6529808763452
 30
0.0
  0
SPLINE
  5
472
330
1B
100
AcDbEntity
 67
     1
  8
0
  6
Continuous
 62
     7
370
    25
100
AcDbSpline
210
0.0
220
0.0
230
1.0
 70
     8
 71
     3
 72
     9
 73
     5
 74
     0
 42
0.000000001
 43
0.00000001
 40
0.0
 40
0.0
 40
0.0
 40
0.0
 40
0.4999865439913407
 40
1.0
 40
1.0
 40
1.0
 40
1.0
 10
189.9625050536665
 20
48.48438381070161
 30
0.0
 10
190.0909512075662
 20
48.38112974608845
 30
0.0
 10
190.3478504290417
 20
48.1746160591622
 30
0.0
 10
190.6048044346604
 20
47.96792146547393
 30
0.0
 10
190.733284895045
 20
47.86457138734556
 30
0.0
  0
SPLINE
  5
473
330
1B
100
AcDbEntity
 67
     1
  8
0
  6
Continuous
 62
     7
370
    25
100
AcDbSpline
210
0.0
220
0.0
230
1.0
 70
     8
 71
     3
 72
     9
 73
     5
 74
     0
 42
0.000000001
 43
0.00000001
 40
0.0
 40
0.0
 40
0.0
 40
0.0
 40
0.523069512995578
 40
1.0
 40
1.0
 40
1.0
 40
1.0
 10
186.5989158612692
 20
67.92038542957314
 30
0.0
 10
186.5728413796389
 20
67.75642746747565
 30
0.0
 10
186.5229923997565
 20
67.4429739818031
 30
0.0
 10
186.4730846121314
 20
67.1295332039583
 30
0.0
 10
186.4492820666741
 20
66.98004374113376
 30
0.0
  0
SPLINE
  5
474
330
1B
100
AcDbEntity
 67
     1
  8
0
  6
Continuous
 62
     7
370
    25
100
AcDbSpline
210
0.0
220
0.0
230
1.0
 70
     8
 71
     3
 72
     9
 73
     5
 74
     0
 42
0.000000001
 43
0.00000001
 40
0.0
 40
0.0
 40
0.0
 40
0.0
 40
0.5230695129955991
 40
1.0
 40
1.0
 40
1.0
 40
1.0
 10
184.5450389229754
 20
67.1319759405735
 30
0.0
 10
184.5189644413449
 20
66.96801797847598
 30
0.0
 10
184.4691154614626
 20
66.65456449280343
 30
0.0
 10
184.4192076738375
 20
66.34112371495866
 30
0.0
 10
184.3954051283802
 20
66.19163425213411
 30
0.0
  0
SPLINE
  5
475
330
1B
100
AcDbEntity
 67
     1
  8
0
  6
Continuous
 62
     7
370
    25
100
AcDbSpline
210
0.0
220
0.0
230
1.0
 70
     8
 71
     3
 72
     9
 73
     5
 74
     0
 42
0.000000001
 43
0.00000001
 40
0.0
 40
0.0
 40
0.0
 40
0.0
 40
0.5230695129955968
 40
1.0
 40
1.0
 40
1.0
 40
1.0
 10
182.4911619846815
 20
66.34356645157385
 30
0.0
 10
182.4650875030511
 20
66.17960848947632
 30
0.0
 10
182.4152385231688
 20
65.86615500380378
 30
0.0
 10
182.3653307355437
 20
65.552714225959
 30
0.0
 10
182.3415281900863
 20
65.40322476313446
 30
0.0
  0
SPLINE
  5
476
330
1B
100
AcDbEntity
 67
     1
  8
0
  6
Continuous
 62
     7
370
    25
100
AcDbSpline
210
0.0
220
0.0
230
1.0
 70
     8
 71
     3
 72
     9
 73
     5
 74
     0
 42
0.000000001
 43
0.00000001
 40
0.0
 40
0.0
 40
0.0
 40
0.0
 40
0.5230695129956044
 40
1.0
 40
1.0
 40
1.0
 40
1.0
 10
188.6527927995631
 20
68.70879491857279
 30
0.0
 10
188.6267183179327
 20
68.54483695647527
 30
0.0
 10
188.5768693380504
 20
68.23138347080273
 30
0.0
 10
188.5269615504253
 20
67.91794269295795
 30
0.0
 10
188.5031590049679
 20
67.76845323013342
 30
0.0
  0
SPLINE
  5
482
330
1B
100
AcDbEntity
 67
     1
  8
0
  6
Continuous
 62
     7
370
    25
100
AcDbSpline
210
0.0
220
0.0
230
1.0
 70
     8
 71
     3
 72
     9
 73
     5
 74
     0
 42
0.000000001
 43
0.00000001
 40
0.0
 40
0.0
 40
0.0
 40
0.0
 40
0.5143877146473113
 40
0.9999999999999999
 40
0.9999999999999999
 40
0.9999999999999999
 40
0.9999999999999999
 10
194.0044543135008
 20
49.03470036872942
 30
0.0
 10
194.0306478973579
 20
49.1987098166761
 30
0.0
 10
194.081569766429
 20
49.51755383895048
 30
0.0
 10
194.1325510536848
 20
49.83638863676008
 30
0.0
 10
194.1573081930993
 20
49.99121873157435
 30
0.0
  0
SPLINE
  5
483
330
1B
100
AcDbEntity
 67
     1
  8
0
  6
Continuous
 62
     7
370
    25
100
AcDbSpline
210
0.0
220
0.0
230
1.0
 70
     8
 71
     3
 72
     9
 73
     5
 74
     0
 42
0.000000001
 43
0.00000001
 40
0.0
 40
0.0
 40
0.0
 40
0.0
 40
0.5143877146473239
 40
1.0
 40
1.0
 40
1.0
 40
1.0
 10
191.9505773752069
 20
48.24629087972978
 30
0.0
 10
191.9767709590641
 20
48.41030032767646
 30
0.0
 10
192.0276928281353
 20
48.72914434995084
 30
0.0
 10
192.078674115391
 20
49.04797914776043
 30
0.0
 10
192.1034312548054
 20
49.20280924257469
 30
0.0
  0
SPLINE
  5
484
330
1B
100
AcDbEntity
 67
     1
  8
0
  6
Continuous
 62
     7
370
    25
100
AcDbSpline
210
0.0
220
0.0
230
1.0
 70
     8
 71
     3
 72
     9
 73
     5
 74
     0
 42
0.000000001
 43
0.00000001
 40
0.0
 40
0.0
 40
0.0
 40
0.0
 40
0.5143877146473288
 40
1.0
 40
1.0
 40
1.0
 40
1.0
 10
189.896700436913
 20
47.45788139073013
 30
0.0
 10
189.9228940207702
 20
47.62189083867681
 30
0.0
 10
189.9738158898414
 20
47.94073486095118
 30
0.0
 10
190.0247971770971
 20
48.25956965876078
 30
0.0
 10
190.0495543165115
 20
48.41439975357505
 30
0.0
  0
SPLINE
  5
485
330
1B
100
AcDbEntity
 67
     1
  8
0
  6
Continuous
 62
     7
370
    25
100
AcDbSpline
210
0.0
220
0.0
230
1.0
 70
     8
 71
     3
 72
     9
 73
     5
 74
     0
 42
0.000000001
 43
0.00000001
 40
0.0
 40
0.0
 40
0.0
 40
0.0
 40
0.4999479513121702
 40
0.9999999999999999
 40
0.9999999999999999
 40
0.9999999999999999
 40
0.9999999999999999
 10
186.4830143308402
 20
66.95280860276372
 30
0.0
 10
186.3538122333417
 20
67.05711863556245
 30
0.0
 10
186.0953811363459
 20
67.26576042022214
 30
0.0
 10
185.8369891122316
 20
67.47445015485685
 30
0.0
 10
185.7077796512087
 20
67.57880588420107
 30
0.0
  0
SPLINE
  5
486
330
1B
100
AcDbEntity
 67
     1
  8
0
  6
Continuous
 62
     7
370
    25
100
AcDbSpline
210
0.0
220
0.0
230
1.0
 70
     8
 71
     3
 72
     9
 73
     5
 74
     0
 42
0.000000001
 43
0.00000001
 40
0.0
 40
0.0
 40
0.0
 40
0.0
 40
0.4999479513122005
 40
1.0
 40
1.0
 40
1.0
 40
1.0
 10
184.4291373925463
 20
66.16439911376408
 30
0.0
 10
184.2999352950479
 20
66.26870914656281
 30
0.0
 10
184.0415041980521
 20
66.4773509312225
 30
0.0
 10
183.7831121739377
 20
66.6860406658572
 30
0.0
 10
183.6539027129148
 20
66.79039639520143
 30
0.0
  0
SPLINE
  5
487
330
1B
100
AcDbEntity
 67
     1
  8
0
  6
Continuous
 62
     7
370
    25
100
AcDbSpline
210
0.0
220
0.0
230
1.0
 70
     8
 71
     3
 72
     9
 73
     5
 74
     0
 42
0.000000001
 43
0.00000001
 40
0.0
 40
0.0
 40
0.0
 40
0.0
 40
0.4999479513121658
 40
1.0
 40
1.0
 40
1.0
 40
1.0
 10
182.3752604542524
 20
65.37598962476443
 30
0.0
 10
182.246058356754
 20
65.48029965756317
 30
0.0
 10
181.9876272597583
 20
65.68894144222287
 30
0.0
 10
181.7292352356439
 20
65.89763117685759
 30
0.0
 10
181.6000257746209
 20
66.0019869062018
 30
0.0
  0
SPLINE
  5
488
330
1B
100
AcDbEntity
 67
     1
  8
0
  6
Continuous
 62
     7
370
    25
100
AcDbSpline
210
0.0
220
0.0
230
1.0
 70
     8
 71
     3
 72
     9
 73
     5
 74
     0
 42
0.000000001
 43
0.00000001
 40
0.0
 40
0.0
 40
0.0
 40
0.0
 40
0.499947951312179
 40
1.0
 40
1.0
 40
1.0
 40
1.0
 10
188.536891269134
 20
67.7412180917634
 30
0.0
 10
188.4076891716356
 20
67.84552812456214
 30
0.0
 10
188.1492580746398
 20
68.05416990922186
 30
0.0
 10
187.8908660505255
 20
68.26285964385653
 30
0.0
 10
187.7616565895025
 20
68.36721537320074
 30
0.0
  0
SPLINE
  5
489
330
1B
100
AcDbEntity
 67
     1
  8
0
  6
Continuous
 62
     7
370
    25
100
AcDbSpline
210
0.0
220
0.0
230
1.0
 70
     8
 71
     3
 72
     9
 73
     5
 74
     0
 42
0.000000001
 43
0.00000001
 40
0.0
 40
0.0
 40
0.0
 40
0.0
 40
0.5000520486878114
 40
1.0
 40
1.0
 40
1.0
 40
1.0
 10
196.0583312517946
 20
49.82310985772907
 30
0.0
 10
196.0845249817034
 20
49.98711928300175
 30
0.0
 10
196.1369069886916
 20
50.31510399119971
 30
0.0
 10
196.1893501172854
 20
50.64307921048271
 30
0.0
 10
196.2155689519863
 20
50.80704974944442
 30
0.0
  0
SPLINE
  5
49E
330
1B
100
AcDbEntity
 67
     1
  8
0
  6
Continuous
 62
     7
370
    25
100
AcDbSpline
210
0.0
220
0.0
230
1.0
 70
     8
 71
     3
 72
    17
 73
    13
 74
     0
 42
0.000000001
 43
0.00000001
 40
0.0
 40
0.0
 40
0.0
 40
0.0
 40
0.0371858985737313
 40
0.1314481971825633
 40
0.2283863399239557
 40
0.324170090130987
 40
0.4222884465153673
 40
0.5270731183180876
 40
0.6345440441054753
 40
0.7454400919796057
 40
0.860083180082198
 40
1.0
 40
1.0
 40
1.0
 40
1.0
 10
114.6119716234661
 20
45.47464962228715
 30
0.0
 10
114.6181197358637
 20
45.48134406874323
 30
0.0
 10
114.6398526594111
 20
45.5050082250912
 30
0.0
 10
114.5014903105517
 20
45.35419533684037
 30
0.0
 10
114.216589806247
 20
45.04968937417232
 30
0.0
 10
113.7668229118878
 20
44.58504730064882
 30
0.0
 10
113.1632790664634
 20
43.99259526300871
 30
0.0
 10
112.3859624399215
 20
43.28266654102723
 30
0.0
 10
111.421651291664
 20
42.48470727027602
 30
0.0
 10
110.2667586486563
 20
41.65367185422054
 30
0.0
 10
108.8355955082815
 20
40.77668767435594
 30
0.0
 10
107.7109874762075
 20
40.29567408021375
 30
0.0
 10
107.0928556551935
 20
40.03128880072106
 30
0.0
  0
SPLINE
  5
49F
330
1B
100
AcDbEntity
 67
     1
  8
0
  6
Continuous
 62
     7
370
    25
100
AcDbSpline
210
0.0
220
0.0
230
1.0
 70
     8
 71
     3
 72
    17
 73
    13
 74
     0
 42
0.000000001
 43
0.00000001
 40
0.0
 40
0.0
 40
0.0
 40
0.0
 40
0.0964749149394716
 40
0.1960377694248522
 40
0.2924429456511947
 40
0.3912590775153574
 40
0.4955662374238474
 40
0.6025214060080342
 40
0.7133582237437122
 40
0.827886083603096
 40
0.930745875277603
 40
1.0
 40
1.0
 40
1.0
 40
1.0
 10
90.2884079782438
 20
33.58066570890576
 30
0.0
 10
89.85219741995567
 20
33.42608422472694
 30
0.0
 10
88.96581420935613
 20
33.11197345954186
 30
0.0
 10
87.6302433256035
 20
32.80138618616719
 30
0.0
 10
86.3303949195128
 20
32.59654120332784
 30
0.0
 10
85.08757482648947
 20
32.48786126849613
 30
0.0
 10
83.91835305119835
 20
32.45250859959287
 30
0.0
 10
82.86516005641427
 20
32.47008680345861
 30
0.0
 10
81.9830173051781
 20
32.51693444800507
 30
0.0
 10
81.37691017789051
 20
32.56474488556422
 30
0.0
 10
81.0541941336859
 20
32.5949352847783
 30
0.0
 10
81.0571194546713
 20
32.59469656435999
 30
0.0
 10
81.05829652709296
 20
32.59460050952624
 30
0.0
  0
SPLINE
  5
4A2
330
1B
100
AcDbEntity
 67
     1
  8
0
  6
Continuous
 62
     7
370
    25
100
AcDbSpline
210
0.0
220
0.0
230
1.0
 70
     8
 71
     3
 72
    22
 73
    18
 74
     0
 42
0.000000001
 43
0.00000001
 40
0.0
 40
0.0
 40
0.0
 40
0.0
 40
0.2499999999999985
 40
0.2499999999999985
 40
0.3749999999999983
 40
0.3749999999999983
 40
0.4999999999999982
 40
0.4999999999999982
 40
0.5624999999999982
 40
0.5624999999999982
 40
0.6249999999999981
 40
0.6249999999999981
 40
0.7499999999999987
 40
0.7499999999999987
 40
0.8749999999999993
 40
0.8749999999999993
 40
1.0
 40
1.0
 40
1.0
 40
1.0
 10
-51.68267823997677
 20
0.0
 30
0.0
 10
-52.5524935242132
 20
-0.0062084816172953
 30
0.0
 10
-53.34508584243085
 20
-0.0122949160582565
 30
0.0
 10
-54.42075567017189
 20
-0.0199316472854448
 30
0.0
 10
-54.76027623554747
 20
-0.0222421042828207
 30
0.0
 10
-55.37907773223593
 20
-0.0262371059886052
 30
0.0
 10
-55.66142187710302
 20
-0.0279446735453083
 30
0.0
 10
-56.04449167832048
 20
-0.0301674022385456
 30
0.0
 10
-56.16541555978083
 20
-0.0308525768564424
 30
0.0
 10
-56.393442821006
 20
-0.0321362378577009
 30
0.0
 10
-56.50078232994326
 20
-0.0327361250357511
 30
0.0
 10
-56.79697865680852
 20
-0.0344274083223933
 30
0.0
 10
-56.96179686683197
 20
-0.035418738172182
 30
0.0
 10
-57.22781497359561
 20
-0.0374483712649587
 30
0.0
 10
-57.32901774146007
 20
-0.0384858432391777
 30
0.0
 10
-57.46555695279746
 20
-0.040972689360437
 30
0.0
 10
-57.50000000002278
 20
-0.042413246646035
 30
0.0
 10
-57.49999999999994
 20
-0.0442238394505745
 30
0.0
  0
SPLINE
  5
4A3
330
1B
100
AcDbEntity
 67
     1
  8
0
  6
Continuous
 62
     7
370
    25
100
AcDbSpline
210
0.0
220
0.0
230
1.0
 70
     8
 71
     3
 72
    11
 73
     7
 74
     0
 42
0.000000001
 43
0.00000001
 40
0.0867452198253127
 40
0.0867452198253127
 40
0.0867452198253127
 40
0.0867452198253127
 40
0.7030997745177655
 40
0.7401050315604635
 40
0.7487681916145684
 40
0.7626867633417699
 40
0.7626867633417699
 40
0.7626867633417699
 40
0.7626867633417699
 10
47.49999999999964
 20
-0.1188032358279308
 30
0.0
 10
23.85280458043063
 20
-0.3466165049448127
 30
0.0
 10
-0.959050287569263
 20
-0.2013303425750165
 30
0.0
 10
-26.41458476852435
 20
-0.0205486018735532
 30
0.0
 10
-28.70629355789518
 20
-0.0070410663984867
 30
0.0
 10
-29.57481812331736
 20
-0.0025463583008152
 30
0.0
 10
-30.11015770583006
 20
0.0000000006459416
 30
0.0
  0
SPLINE
  5
4A4
330
1B
100
AcDbEntity
 67
     1
  8
0
  6
Continuous
 62
     7
370
    25
100
AcDbSpline
210
0.0
220
0.0
230
1.0
 70
     8
 71
     3
 72
    27
 73
    23
 74
     0
 42
0.000000001
 43
0.00000001
 40
0.0
 40
0.0
 40
0.0
 40
0.0
 40
0.1250000000000023
 40
0.1250000000000023
 40
0.1875000000000028
 40
0.1875000000000028
 40
0.2500000000000033
 40
0.2500000000000033
 40
0.3750000000000032
 40
0.3750000000000032
 40
0.500000000000003
 40
0.500000000000003
 40
0.6250000000000028
 40
0.6250000000000028
 40
0.6875000000000022
 40
0.6875000000000022
 40
0.7500000000000018
 40
0.8125000000000012
 40
0.8125000000000012
 40
0.8750000000000008
 40
0.8750000000000008
 40
1.0
 40
1.0
 40
1.0
 40
1.0
 10
57.49999999999996
 20
-0.8857390434212145
 30
0.0
 10
57.49999999956299
 20
-0.8358541351636342
 30
0.0
 10
57.435416770615
 20
-0.7859016215770488
 30
0.0
 10
57.24565384970612
 20
-0.7110921157086093
 30
0.0
 10
57.16680329135701
 20
-0.686177615184521
 30
0.0
 10
56.97720508561868
 20
-0.6364578264754471
 30
0.0
 10
56.86588949311368
 20
-0.6115743634335993
 30
0.0
 10
56.49071093838521
 20
-0.5387992918420292
 30
0.0
 10
56.1845556487452
 20
-0.4922664501668603
 30
0.0
 10
55.46114335434985
 20
-0.4038836249193739
 30
0.0
 10
55.03975936496178
 20
-0.361838665704009
 30
0.0
 10
54.11871452747701
 20
-0.2869242257041577
 30
0.0
 10
53.61607855181813
 20
-0.2535662463793893
 30
0.0
 10
52.7974274967787
 20
-0.2104004237454896
 30
0.0
 10
52.51335109569306
 20
-0.1971739801149459
 30
0.0
 10
51.93597429837655
 20
-0.1737066345472299
 30
0.0
 10
51.34634540340041
 20
-0.1530509378633721
 30
0.0
 10
50.73259354206105
 20
-0.1380571223003266
 30
0.0
 10
50.1066212300524
 20
-0.1259782667306954
 30
0.0
 10
49.78621551937888
 20
-0.1213855785683962
 30
0.0
 10
48.81552871124364
 20
-0.112290981793748
 30
0.0
 10
48.16132563338753
 20
-0.1124321312711493
 30
0.0
 10
47.50000000000047
 20
-0.1188032358279238
 30
0.0
  0
SPLINE
  5
4A8
330
1B
100
AcDbEntity
 67
     1
  8
0
  6
Continuous
 62
     7
370
    25
100
AcDbSpline
210
0.0
220
0.0
230
1.0
 70
     8
 71
     3
 72
    26
 73
    22
 74
     0
 42
0.000000001
 43
0.00000001
 40
0.0
 40
0.0
 40
0.0
 40
0.0
 40
0.124999999999999
 40
0.124999999999999
 40
0.1874999999999993
 40
0.1874999999999993
 40
0.2499999999999996
 40
0.2499999999999996
 40
0.3749999999999997
 40
0.3749999999999997
 40
0.4999999999999998
 40
0.4999999999999998
 40
0.6249999999999999
 40
0.6249999999999999
 40
0.6875000000000002
 40
0.6875000000000002
 40
0.7500000000000007
 40
0.7500000000000007
 40
0.8750000000000003
 40
0.8750000000000003
 40
1.0
 40
1.0
 40
1.0
 40
1.0
 10
47.50000000000002
 20
14.49626872598211
 30
0.0
 10
48.1605360990992
 20
14.56199127087931
 30
0.0
 10
48.80934575239823
 20
14.6331175787159
 30
0.0
 10
49.76584510843097
 20
14.74705919099046
 30
0.0
 10
50.08187251272521
 20
14.78624750232134
 30
0.0
 10
50.70822810644029
 20
14.86687652988793
 30
0.0
 10
51.01956702221228
 20
14.90847081413136
 30
0.0
 10
51.92538502079189
 20
15.03360616718916
 30
0.0
 10
52.49801784857814
 20
15.11826863757536
 30
0.0
 10
53.58186004532114
 20
15.28703907302453
 30
0.0
 10
54.09565554701656
 20
15.37167526049339
 30
0.0
 10
55.01789443758107
 20
15.52969162654831
 30
0.0
 10
55.43212023949291
 20
15.60393488092462
 30
0.0
 10
55.98150725314045
 20
15.70514331541692
 30
0.0
 10
56.15272638182464
 20
15.73721364554893
 30
0.0
 10
56.46315136691544
 20
15.79604923915547
 30
0.0
 10
56.60343888272013
 20
15.82301179906657
 30
0.0
 10
56.98020525849838
 20
15.89607946149445
 30
0.0
 10
57.1735034145478
 20
15.93451167276801
 30
0.0
 10
57.43452493556963
 20
15.98670579306881
 30
0.0
 10
57.50000000000002
 20
15.99999999999999
 30
0.0
 10
57.50000000000002
 20
15.99999999999999
 30
0.0
  0
SPLINE
  5
4B0
330
1B
100
AcDbEntity
 67
     1
  8
0
  6
Continuous
 62
     7
370
    25
100
AcDbSpline
210
0.0
220
0.0
230
1.0
 70
     8
 71
     3
 72
    14
 73
    10
 74
     0
 42
0.000000001
 43
0.00000001
 40
0.0
 40
0.0
 40
0.0
 40
0.0
 40
0.2051292197169669
 40
0.2051292197169669
 40
0.4038469147877243
 40
0.5032057623231037
 40
0.6025646098584829
 40
0.7499999999999998
 40
1.0
 40
1.0
 40
1.0
 40
1.0
 10
72.72945245662982
 20
20.844054026841
 30
0.0
 10
71.38990644868025
 20
19.8501302276192
 30
0.0
 10
69.97139332636301
 20
19.01038706658981
 30
0.0
 10
67.10544740755118
 20
17.66469439054258
 30
0.0
 10
65.00584660803521
 20
16.92838524031513
 30
0.0
 10
62.47636944082608
 20
16.37183741438501
 30
0.0
 10
60.56579824001778
 20
16.097034182616
 30
0.0
 10
58.40299778254438
 20
15.96307973269221
 30
0.0
 10
57.59980590002235
 20
15.99775928116124
 30
0.0
 10
57.50000000000002
 20
16.0
 30
0.0
  0
SPLINE
  5
4B2
330
1B
100
AcDbEntity
 67
     1
  8
0
  6
Continuous
 62
     7
370
    25
100
AcDbSpline
210
0.0
220
0.0
230
1.0
 70
     8
 71
     3
 72
    14
 73
    10
 74
     0
 42
0.000000001
 43
0.00000001
 40
0.0
 40
0.0
 40
0.0
 40
0.0
 40
0.2051292197169669
 40
0.2051292197169669
 40
0.4038469147877243
 40
0.5032057623231037
 40
0.6025646098584829
 40
0.7499999999999998
 40
1.0
 40
1.0
 40
1.0
 40
1.0
 10
77.74660375026394
 20
7.773928055880153
 30
0.0
 10
76.18965370009721
 20
6.386055268280344
 30
0.0
 10
74.51051491958225
 20
5.141909485766132
 30
0.0
 10
71.0040589319857
 20
3.005027816797162
 30
0.0
 10
68.28814429276325
 20
1.674637309742301
 30
0.0
 10
64.84719885511473
 20
0.4821668248984161
 30
0.0
 10
62.06490572411181
 20
-0.2509256650580806
 30
0.0
 10
58.84792880209909
 20
-0.8047156978209548
 30
0.0
 10
57.6248608865797
 20
-0.8756934638885321
 30
0.0
 10
57.50000000000002
 20
-0.8857389007388417
 30
0.0
  0
SPLINE
  5
4CD
330
1B
100
AcDbEntity
 67
     1
  8
0
  6
Continuous
 62
     7
370
    25
100
AcDbSpline
210
0.0
220
0.0
230
1.0
 70
     8
 71
     3
 72
    17
 73
    13
 74
     0
 42
0.000000001
 43
0.00000001
 40
0.0
 40
0.0
 40
0.0
 40
0.0
 40
0.0953613341515455
 40
0.1938211074982621
 40
0.2891039330172281
 40
0.3867290368755675
 40
0.4907792027962407
 40
0.5974226535547096
 40
0.7089437318434936
 40
0.8242287193424119
 40
0.9269646774838199
 40
1.0
 40
1.0
 40
1.0
 40
1.0
 10
90.39526106146262
 20
33.30230391028359
 30
0.0
 10
89.93880705300003
 20
33.1414356662974
 30
0.0
 10
89.01106812999329
 20
32.81447231696808
 30
0.0
 10
87.6104739125244
 20
32.50186628240088
 30
0.0
 10
86.24621659955062
 20
32.30466877263995
 30
0.0
 10
84.93545994387826
 20
32.21084738577166
 30
0.0
 10
83.69524778584666
 20
32.19561186358254
 30
0.0
 10
82.56678092032392
 20
32.23639574509512
 30
0.0
 10
81.61363744492316
 20
32.30664032813195
 30
0.0
 10
80.95279213651176
 20
32.37292114693297
 30
0.0
 10
80.59491427357288
 20
32.41421287552962
 30
0.0
 10
80.59277572654216
 20
32.41451822011229
 30
0.0
 10
80.59188713159354
 20
32.41464509487813
 30
0.0
  0
SPLINE
  5
4CF
330
1B
100
AcDbEntity
 67
     1
  8
0
  6
Continuous
 62
     7
370
    25
100
AcDbSpline
210
0.0
220
0.0
230
1.0
 70
     8
 71
     3
 72
    17
 73
    13
 74
     0
 42
0.000000001
 43
0.00000001
 40
0.0
 40
0.0
 40
0.0
 40
0.0
 40
0.0333511313264564
 40
0.1265338721925082
 40
0.2223704902060259
 40
0.3169411352763652
 40
0.4137868834858679
 40
0.5179810698677091
 40
0.6247850554729897
 40
0.7363578058648352
 40
0.8517097653555954
 40
0.9999999999999999
 40
0.9999999999999999
 40
0.9999999999999999
 40
0.9999999999999999
 10
115.0789950280066
 20
45.65300548869675
 30
0.0
 10
115.0853647217497
 20
45.66025335367777
 30
0.0
 10
115.1095312786829
 20
45.68775168386028
 30
0.0
 10
114.9727842177377
 20
45.531928517554
 30
0.0
 10
114.688085936888
 20
45.21348356948467
 30
0.0
 10
114.2345772100158
 20
44.72258487816038
 30
0.0
 10
113.623755462112
 20
44.09337182709985
 30
0.0
 10
112.833569376266
 20
43.33484838909121
 30
0.0
 10
111.8444448245881
 20
42.47347483062
 30
0.0
 10
110.6491645867318
 20
41.56921212552019
 30
0.0
 10
109.1216867612471
 20
40.58744705758796
 30
0.0
 10
107.8915954462201
 20
40.05334320193676
 30
0.0
 10
107.1997087384123
 20
39.75292700209889
 30
0.0
  0
SPLINE
  5
4D5
330
1B
100
AcDbEntity
 67
     1
  8
0
  6
Continuous
 62
     7
370
    25
100
AcDbSpline
210
0.0
220
0.0
230
1.0
 70
    24
 71
     3
 72
    26
 73
    22
 74
     0
 42
0.000000001
 43
0.00000001
 40
0.0
 40
0.0
 40
0.0
 40
0.0
 40
0.1250000000000006
 40
0.1250000000000006
 40
0.1875000000000008
 40
0.1875000000000008
 40
0.250000000000001
 40
0.250000000000001
 40
0.375000000000001
 40
0.375000000000001
 40
0.4375000000000004
 40
0.4375000000000004
 40
0.4999999999999998
 40
0.4999999999999998
 40
0.625
 40
0.625
 40
0.75
 40
0.75
 40
0.8750000000000001
 40
0.8750000000000001
 40
1.0
 40
1.0
 40
1.0
 40
1.0
 10
196.201752915359
 20
50.78165612201025
 30
0.0
 10
196.2147187571697
 20
50.74787894929456
 30
0.0
 10
196.2084344027641
 20
50.76425025223539
 30
0.0
 10
196.1712954473709
 20
50.86100053880415
 30
0.0
 10
196.1542671825282
 20
50.90536068533712
 30
0.0
 10
196.1107547798861
 20
51.01871436963833
 30
0.0
 10
196.084092789734
 20
51.08817122862656
 30
0.0
 10
195.9909321288883
 20
51.33086304745535
 30
0.0
 10
195.9115435379537
 20
51.53767739756051
 30
0.0
 10
195.7671504420537
 20
51.91383427270692
 30
0.0
 10
195.714747509308
 20
52.05034857976062
 30
0.0
 10
195.6013509117462
 20
52.34575681604203
 30
0.0
 10
195.5404940574892
 20
52.50429434157871
 30
0.0
 10
195.3488458053469
 20
53.00355510750234
 30
0.0
 10
195.2079918054465
 20
53.37049232236142
 30
0.0
 10
194.9002745357874
 20
54.17212321656763
 30
0.0
 10
194.7319485430423
 20
54.61062741957205
 30
0.0
 10
194.3809112914218
 20
55.52511072506888
 30
0.0
 10
194.1971637211744
 20
56.00378951098386
 30
0.0
 10
193.8131507980198
 20
57.00417737779553
 30
0.0
 10
193.6121640795881
 20
57.52776568013028
 30
0.0
 10
193.410389179166
 20
58.05340726674945
 30
0.0
  0
SPLINE
  5
4D6
330
1B
100
AcDbEntity
 67
     1
  8
0
  6
Continuous
 62
     7
370
    25
100
AcDbSpline
210
0.0
220
0.0
230
1.0
 70
     8
 71
     3
 72
    19
 73
    15
 74
     0
 42
0.000000001
 43
0.00000001
 40
0.0
 40
0.0
 40
0.0
 40
0.0
 40
0.0848407450958422
 40
0.1702588962266461
 40
0.254603963226025
 40
0.3402334354290056
 40
0.4248337609594319
 40
0.5101103391237327
 40
0.5953869172880344
 40
0.6799872428184611
 40
0.7656167150214416
 40
0.8500532493094483
 40
0.9355647679717282
 40
0.9999999999999999
 40
0.9999999999999999
 40
0.9999999999999999
 40
0.9999999999999999
 10
196.2017529153591
 20
50.78165612201027
 30
0.0
 10
196.1513280952782
 20
50.82877040195478
 30
0.0
 10
196.0501352757233
 20
50.9233196104843
 30
0.0
 10
195.6127769406173
 20
51.8003534111026
 30
0.0
 10
194.9977868346293
 20
53.15632133505203
 30
0.0
 10
194.2118099665779
 20
54.93922640188737
 30
0.0
 10
193.3149071924424
 20
57.02696726837913
 30
0.0
 10
192.3559636963932
 20
59.26633595001974
 30
0.0
 10
191.3969617617362
 20
61.50585510808252
 30
0.0
 10
190.5002350499105
 20
63.59314257997747
 30
0.0
 10
189.7133304758456
 20
65.37834991858665
 30
0.0
 10
189.1003834543125
 20
66.72889954553331
 30
0.0
 10
188.6897674472857
 20
67.55680106255373
 30
0.0
 10
188.5974328224753
 20
67.64834940099894
 30
0.0
 10
188.5577547171045
 20
67.68768962279334
 30
0.0
  0
SPLINE
  5
4D7
330
1B
100
AcDbEntity
 67
     1
  8
0
  6
Continuous
 62
     7
370
    25
100
AcDbSpline
210
0.0
220
0.0
230
1.0
 70
     8
 71
     3
 72
    19
 73
    15
 74
     0
 42
0.000000001
 43
0.00000001
 40
0.0
 40
0.0
 40
0.0
 40
0.0
 40
0.0414361988949936
 40
0.130905596917833
 40
0.2192510161376258
 40
0.308941757854597
 40
0.3975545421111024
 40
0.4868756525870721
 40
0.5761967630630427
 40
0.6648095473195486
 40
0.7545002890365194
 40
0.8429415136927912
 40
0.9325087075204503
 40
1.0
 40
1.0
 40
1.0
 40
1.0
 10
194.0417893245322
 20
50.13387818593214
 30
0.0
 10
194.0157106269126
 20
50.16244724470436
 30
0.0
 10
193.9333225804756
 20
50.25270286157302
 30
0.0
 10
193.5538265947536
 20
51.02499206625798
 30
0.0
 10
192.9452855148478
 20
52.36437393422394
 30
0.0
 10
192.1575671355005
 20
54.15175794152001
 30
0.0
 10
191.2611286637538
 20
56.23830468267894
 30
0.0
 10
190.302060294328
 20
58.4779945223971
 30
0.0
 10
189.3430918492017
 20
60.71742754974383
 30
0.0
 10
188.4463562091073
 20
62.80473798398425
 30
0.0
 10
187.6594540419479
 20
64.58993913234576
 30
0.0
 10
187.0465063791377
 20
65.94049040857345
 30
0.0
 10
186.6358905337027
 20
66.76839151000117
 30
0.0
 10
186.5435558916085
 20
66.85993989289761
 30
0.0
 10
186.5038777788106
 20
66.89928013379368
 30
0.0
  0
SPLINE
  5
4D8
330
1B
100
AcDbEntity
 67
     1
  8
0
  6
Continuous
 62
     7
370
    25
100
AcDbSpline
210
0.0
220
0.0
230
1.0
 70
     8
 71
     3
 72
    19
 73
    15
 74
     0
 42
0.000000001
 43
0.00000001
 40
0.0
 40
0.0
 40
0.0
 40
0.0
 40
0.0414361988949933
 40
0.1309055969178326
 40
0.2192510161376255
 40
0.3089417578545966
 40
0.397554542111102
 40
0.4868756525870717
 40
0.5761967630630423
 40
0.6648095473195481
 40
0.754500289036519
 40
0.8429415136927907
 40
0.9325087075204498
 40
1.0
 40
1.0
 40
1.0
 40
1.0
 10
191.9879123862383
 20
49.34546869693249
 30
0.0
 10
191.9618336886187
 20
49.37403775570471
 30
0.0
 10
191.8794456421817
 20
49.46429337257338
 30
0.0
 10
191.4999496564598
 20
50.23658257725833
 30
0.0
 10
190.8914085765539
 20
51.5759644452243
 30
0.0
 10
190.1036901972066
 20
53.36334845252035
 30
0.0
 10
189.20725172546
 20
55.4498951936793
 30
0.0
 10
188.248183356034
 20
57.68958503339745
 30
0.0
 10
187.2892149109079
 20
59.92901806074421
 30
0.0
 10
186.3924792708133
 20
62.01632849498459
 30
0.0
 10
185.605577103654
 20
63.80152964334612
 30
0.0
 10
184.9926294408439
 20
65.1520809195738
 30
0.0
 10
184.5820135954089
 20
65.97998202100152
 30
0.0
 10
184.4896789533147
 20
66.07153040389798
 30
0.0
 10
184.4500008405167
 20
66.11087064479403
 30
0.0
  0
SPLINE
  5
4D9
330
1B
100
AcDbEntity
 67
     1
  8
0
  6
Continuous
 62
     7
370
    25
100
AcDbSpline
210
0.0
220
0.0
230
1.0
 70
     8
 71
     3
 72
    19
 73
    15
 74
     0
 42
0.000000001
 43
0.00000001
 40
0.0
 40
0.0
 40
0.0
 40
0.0
 40
0.0414361988949933
 40
0.1309055969178327
 40
0.2192510161376255
 40
0.3089417578545966
 40
0.397554542111102
 40
0.4868756525870717
 40
0.5761967630630423
 40
0.6648095473195481
 40
0.754500289036519
 40
0.8429415136927907
 40
0.9325087075204498
 40
1.0
 40
1.0
 40
1.0
 40
1.0
 10
189.9340354479445
 20
48.55705920793284
 30
0.0
 10
189.9079567503248
 20
48.58562826670506
 30
0.0
 10
189.8255687038878
 20
48.6758838835737
 30
0.0
 10
189.4460727181661
 20
49.44817308825871
 30
0.0
 10
188.8375316382601
 20
50.78755495622465
 30
0.0
 10
188.0498132589128
 20
52.5749389635207
 30
0.0
 10
187.1533747871662
 20
54.66148570467966
 30
0.0
 10
186.1943064177402
 20
56.90117554439779
 30
0.0
 10
185.2353379726141
 20
59.14060857174455
 30
0.0
 10
184.3386023325195
 20
61.22791900598495
 30
0.0
 10
183.5517001653603
 20
63.01312015434646
 30
0.0
 10
182.93875250255
 20
64.36367143057417
 30
0.0
 10
182.528136657115
 20
65.19157253200186
 30
0.0
 10
182.4358020150208
 20
65.28312091489832
 30
0.0
 10
182.3961239022229
 20
65.32246115579437
 30
0.0
  0
SPLINE
  5
4DA
330
1B
100
AcDbEntity
 67
     1
  8
0
  6
Continuous
 62
     7
370
    25
100
AcDbSpline
210
0.0
220
0.0
230
1.0
 70
     8
 71
     3
 72
    15
 73
    11
 74
     0
 42
0.000000001
 43
0.00000001
 40
0.0
 40
0.0
 40
0.0
 40
0.0
 40
0.0849421442041093
 40
0.2324106311948477
 40
0.3787102181048845
 40
0.526788675070232
 40
0.672805148534481
 40
0.8206797257968843
 40
0.9675432164081762
 40
0.9999999999999999
 40
0.9999999999999999
 40
0.9999999999999999
 40
0.9999999999999999
 10
193.4103891791647
 20
58.0534072667503
 30
0.0
 10
193.2114853171431
 20
58.5218102895796
 30
0.0
 10
192.6672634523353
 20
59.80341017394029
 30
0.0
 10
191.773140547327
 20
61.91049148800442
 30
0.0
 10
190.8016235813397
 20
64.1926433064176
 30
0.0
 10
189.9538014627663
 20
66.1365399099942
 30
0.0
 10
189.2823071328174
 20
67.63960136432362
 30
0.0
 10
188.8446101095568
 20
68.51696126925937
 30
0.0
 10
188.6447749149952
 20
68.85038977311423
 30
0.0
 10
188.6691711219762
 20
68.68317092208248
 30
0.0
 10
188.6735868101295
 20
68.65290448352982
 30
0.0
  0
SPLINE
  5
4DB
330
1B
100
AcDbEntity
 67
     1
  8
0
  6
Continuous
 62
     7
370
    25
100
AcDbSpline
210
0.0
220
0.0
230
1.0
 70
     8
 71
     3
 72
    21
 73
    17
 74
     0
 42
0.000000001
 43
0.00000001
 40
0.0
 40
0.0
 40
0.0
 40
0.0
 40
0.0406399481246332
 40
0.1265503707355944
 40
0.2113812941823998
 40
0.2810583108535323
 40
0.3503297239036082
 40
0.4190318295313664
 40
0.4683805116453106
 40
0.5540550087340974
 40
0.6390504120815383
 40
0.7250792823105146
 40
0.8099102057573212
 40
0.8958206283682821
 40
0.9811436418173618
 40
1.0
 40
1.0
 40
1.0
 40
1.0
 10
194.8096235209078
 20
49.52146313016303
 30
0.0
 10
194.781670204432
 20
49.55403595688368
 30
0.0
 10
194.6946252467844
 20
49.65546579347608
 30
0.0
 10
194.2842417001777
 20
50.50717206675849
 30
0.0
 10
193.6670117461009
 20
51.88439383931737
 30
0.0
 10
192.937225148148
 20
53.55649028971857
 30
0.0
 10
192.1752790765996
 20
55.33378125047533
 30
0.0
 10
191.4370924303063
 20
57.07579484508592
 30
0.0
 10
190.6122866990814
 20
59.01735268402266
 30
0.0
 10
189.7196193987517
 20
61.12132112820235
 30
0.0
 10
188.7476502997906
 20
63.40443985139274
 30
0.0
 10
187.8999500643762
 20
65.34807580287037
 30
0.0
 10
187.2284232742987
 20
66.85120667450661
 30
0.0
 10
186.7907350946174
 20
67.7285476670878
 30
0.0
 10
186.5908978933052
 20
68.061980462461
 30
0.0
 10
186.6152941709011
 20
67.89476146041605
 30
0.0
 10
186.6197098718357
 20
67.86449499453018
 30
0.0
  0
SPLINE
  5
4DC
330
1B
100
AcDbEntity
 67
     1
  8
0
  6
Continuous
 62
     7
370
    25
100
AcDbSpline
210
0.0
220
0.0
230
1.0
 70
     8
 71
     3
 72
    21
 73
    17
 74
     0
 42
0.000000001
 43
0.00000001
 40
0.0
 40
0.0
 40
0.0
 40
0.0
 40
0.0406399481246334
 40
0.1265503707355944
 40
0.2113812941823998
 40
0.2810583108535321
 40
0.3503297239036079
 40
0.4190318295313666
 40
0.4683805116453108
 40
0.5540550087340974
 40
0.6390504120815381
 40
0.7250792823105143
 40
0.8099102057573208
 40
0.8958206283682817
 40
0.9811436418173611
 40
0.9999999999999999
 40
0.9999999999999999
 40
0.9999999999999999
 40
0.9999999999999999
 10
192.755746582614
 20
48.73305364116339
 30
0.0
 10
192.7277932661381
 20
48.76562646788403
 30
0.0
 10
192.6407483084905
 20
48.8670563044764
 30
0.0
 10
192.2303647618839
 20
49.71876257775885
 30
0.0
 10
191.613134807807
 20
51.09598435031769
 30
0.0
 10
190.8833482098542
 20
52.76808080071893
 30
0.0
 10
190.1214021383056
 20
54.54537176147567
 30
0.0
 10
189.3832154920125
 20
56.2873853560863
 30
0.0
 10
188.5584097607875
 20
58.228943195023
 30
0.0
 10
187.6657424604578
 20
60.33291163920271
 30
0.0
 10
186.6937733614968
 20
62.6160303623931
 30
0.0
 10
185.8460731260822
 20
64.55966631387071
 30
0.0
 10
185.1745463360048
 20
66.06279718550695
 30
0.0
 10
184.7368581563237
 20
66.94013817808816
 30
0.0
 10
184.5370209550111
 20
67.27357097346132
 30
0.0
 10
184.5614172326073
 20
67.10635197141639
 30
0.0
 10
184.5658329335418
 20
67.07608550553053
 30
0.0
  0
SPLINE
  5
4DD
330
1B
100
AcDbEntity
 67
     1
  8
0
  6
Continuous
 62
     7
370
    25
100
AcDbSpline
210
0.0
220
0.0
230
1.0
 70
     8
 71
     3
 72
    21
 73
    17
 74
     0
 42
0.000000001
 43
0.00000001
 40
0.0
 40
0.0
 40
0.0
 40
0.0
 40
0.0406399481246322
 40
0.1265503707355935
 40
0.211381294182399
 40
0.2810583108535315
 40
0.3503297239036074
 40
0.4190318295313657
 40
0.4683805116453099
 40
0.5540550087340967
 40
0.6390504120815377
 40
0.7250792823105139
 40
0.8099102057573205
 40
0.8958206283682817
 40
0.9811436418173614
 40
1.0
 40
1.0
 40
1.0
 40
1.0
 10
190.7018696443201
 20
47.94464415216375
 30
0.0
 10
190.6739163278442
 20
47.9772169788844
 30
0.0
 10
190.5868713701966
 20
48.07864681547677
 30
0.0
 10
190.1764878235899
 20
48.93035308875918
 30
0.0
 10
189.5592578695132
 20
50.30757486131809
 30
0.0
 10
188.8294712715604
 20
51.97967131171928
 30
0.0
 10
188.0675252000118
 20
53.75696227247602
 30
0.0
 10
187.3293385537186
 20
55.49897586708666
 30
0.0
 10
186.5045328224937
 20
57.44053370602335
 30
0.0
 10
185.6118655221639
 20
59.54450215020305
 30
0.0
 10
184.6398964232029
 20
61.82762087339345
 30
0.0
 10
183.7921961877885
 20
63.77125682487107
 30
0.0
 10
183.120669397711
 20
65.27438769650732
 30
0.0
 10
182.6829812180298
 20
66.1517286890885
 30
0.0
 10
182.4831440167174
 20
66.48516148446168
 30
0.0
 10
182.5075402943134
 20
66.31794248241675
 30
0.0
 10
182.5119559952479
 20
66.28767601653088
 30
0.0
  0
SPLINE
  5
4E0
330
1B
100
AcDbEntity
 67
     1
  8
0
  6
Continuous
 62
     7
370
    25
100
AcDbSpline
210
0.0
220
0.0
230
1.0
 70
     8
 71
     3
 72
    20
 73
    16
 74
     0
 42
0.000000001
 43
0.00000001
 40
0.0
 40
0.0
 40
0.0
 40
0.0
 40
0.0650605164143326
 40
0.1488325522295189
 40
0.2315519585744553
 40
0.3154394937411421
 40
0.3983192859357579
 40
0.4818612686247613
 40
0.565403251313765
 40
0.6482830435083805
 40
0.7321705786750677
 40
0.814889985020002
 40
0.8986620208351878
 40
0.9818612686247615
 40
1.0
 40
1.0
 40
1.0
 40
1.0
 10
181.6217593063089
 20
65.94707827655805
 30
0.0
 10
181.6646224865539
 20
65.9013981595737
 30
0.0
 10
181.7626763733678
 20
65.79690024330102
 30
0.0
 10
182.2079185227732
 20
64.88080424549136
 30
0.0
 10
182.871534474694
 20
63.39826382088257
 30
0.0
 10
183.7239855544289
 20
61.44230205030641
 30
0.0
 10
184.6966225391207
 20
59.15726042462314
 30
0.0
 10
185.7366166263198
 20
56.7067497354496
 30
0.0
 10
186.7759288630145
 20
54.25801521244445
 30
0.0
 10
187.7480958103015
 20
51.97419842008848
 30
0.0
 10
188.5957366449713
 20
50.03076649810257
 30
0.0
 10
189.2672995219545
 20
48.52752832123302
 30
0.0
 10
189.7048988394024
 20
47.6504230830167
 30
0.0
 10
189.9047010935319
 20
47.31682793660571
 30
0.0
 10
189.8804511162885
 20
47.48341177885435
 30
0.0
 10
189.8761105538784
 20
47.51322902596058
 30
0.0
  0
SPLINE
  5
4E1
330
1B
100
AcDbEntity
 67
     1
  8
0
  6
Continuous
 62
     7
370
    25
100
AcDbSpline
210
0.0
220
0.0
230
1.0
 70
     8
 71
     3
 72
    20
 73
    16
 74
     0
 42
0.000000001
 43
0.00000001
 40
0.0
 40
0.0
 40
0.0
 40
0.0
 40
0.0650605164143325
 40
0.1488325522295189
 40
0.2315519585744552
 40
0.315439493741142
 40
0.3983192859357578
 40
0.4818612686247612
 40
0.5654032513137649
 40
0.6482830435083804
 40
0.7321705786750676
 40
0.8148899850200018
 40
0.8986620208351875
 40
0.9818612686247615
 40
1.0
 40
1.0
 40
1.0
 40
1.0
 10
183.6756362446027
 20
66.73548776555769
 30
0.0
 10
183.7184994248478
 20
66.68980764857335
 30
0.0
 10
183.8165533116617
 20
66.58530973230067
 30
0.0
 10
184.2617954610671
 20
65.669213734491
 30
0.0
 10
184.9254114129879
 20
64.18667330988224
 30
0.0
 10
185.7778624927228
 20
62.23071153930606
 30
0.0
 10
186.7504994774145
 20
59.94566991362277
 30
0.0
 10
187.7904935646137
 20
57.49515922444924
 30
0.0
 10
188.8298058013083
 20
55.04642470144412
 30
0.0
 10
189.8019727485954
 20
52.76260790908812
 30
0.0
 10
190.6496135832651
 20
50.81917598710221
 30
0.0
 10
191.3211764602484
 20
49.31593781023267
 30
0.0
 10
191.7587757776962
 20
48.43883257201636
 30
0.0
 10
191.9585780318257
 20
48.10523742560532
 30
0.0
 10
191.9343280545823
 20
48.27182126785399
 30
0.0
 10
191.9299874921722
 20
48.30163851496023
 30
0.0
  0
SPLINE
  5
4E2
330
1B
100
AcDbEntity
 67
     1
  8
0
  6
Continuous
 62
     7
370
    25
100
AcDbSpline
210
0.0
220
0.0
230
1.0
 70
     8
 71
     3
 72
    20
 73
    16
 74
     0
 42
0.000000001
 43
0.00000001
 40
0.0
 40
0.0
 40
0.0
 40
0.0
 40
0.065060516414333
 40
0.1488325522295192
 40
0.2315519585744555
 40
0.3154394937411421
 40
0.398319285935758
 40
0.4818612686247613
 40
0.5654032513137649
 40
0.6482830435083803
 40
0.7321705786750674
 40
0.8148899850200014
 40
0.8986620208351871
 40
0.9818612686247609
 40
1.0
 40
1.0
 40
1.0
 40
1.0
 10
185.7295131828966
 20
67.52389725455734
 30
0.0
 10
185.7723763631416
 20
67.47821713757301
 30
0.0
 10
185.8704302499555
 20
67.37371922130033
 30
0.0
 10
186.3156723993609
 20
66.45762322349066
 30
0.0
 10
186.9792883512817
 20
64.97508279888187
 30
0.0
 10
187.8317394310166
 20
63.01912102830573
 30
0.0
 10
188.8043764157084
 20
60.73407940262242
 30
0.0
 10
189.8443705029076
 20
58.2835687134489
 30
0.0
 10
190.8836827396023
 20
55.83483419044376
 30
0.0
 10
191.8558496868892
 20
53.55101739808777
 30
0.0
 10
192.703490521559
 20
51.60758547610185
 30
0.0
 10
193.3750533985422
 20
50.10434729923231
 30
0.0
 10
193.8126527159901
 20
49.227242061016
 30
0.0
 10
194.0124549701195
 20
48.89364691460497
 30
0.0
 10
193.9882049928761
 20
49.06023075685365
 30
0.0
 10
193.9838644304661
 20
49.09004800395988
 30
0.0
  0
SPLINE
  5
4E3
330
1B
100
AcDbEntity
 67
     1
  8
0
  6
Continuous
 62
     7
370
    25
100
AcDbSpline
210
0.0
220
0.0
230
1.0
 70
     8
 71
     3
 72
    20
 73
    16
 74
     0
 42
0.000000001
 43
0.00000001
 40
0.0
 40
0.0
 40
0.0
 40
0.0
 40
0.0650605164143321
 40
0.1488325522295184
 40
0.2315519585744547
 40
0.3154394937411415
 40
0.3983192859357575
 40
0.481861268624761
 40
0.5654032513137647
 40
0.6482830435083802
 40
0.7321705786750674
 40
0.8148899850200017
 40
0.8986620208351874
 40
0.9818612686247613
 40
1.0
 40
1.0
 40
1.0
 40
1.0
 10
187.7833901211904
 20
68.31230674355699
 30
0.0
 10
187.8262533014354
 20
68.26662662657264
 30
0.0
 10
187.9243071882494
 20
68.16212871029998
 30
0.0
 10
188.3695493376548
 20
67.24603271249032
 30
0.0
 10
189.0331652895756
 20
65.76349228788153
 30
0.0
 10
189.8856163693104
 20
63.80753051730535
 30
0.0
 10
190.8582533540022
 20
61.52248889162207
 30
0.0
 10
191.8982474412014
 20
59.07197820244855
 30
0.0
 10
192.937559677896
 20
56.6232436794434
 30
0.0
 10
193.909726625183
 20
54.33942688708741
 30
0.0
 10
194.7573674598529
 20
52.39599496510151
 30
0.0
 10
195.428930336836
 20
50.89275678823195
 30
0.0
 10
195.866529654284
 20
50.01565155001566
 30
0.0
 10
196.0663319084134
 20
49.68205640360463
 30
0.0
 10
196.04208193117
 20
49.8486402458533
 30
0.0
 10
196.0377413687599
 20
49.87845749295953
 30
0.0
  0
LINE
  5
4F7
330
1B
100
AcDbEntity
 67
     1
  8
0
  6
Continuous
 62
     7
370
    25
100
AcDbLine
 10
114.7265268743
 20
45.258748371
 30
0.0
 11
114.6395817522
 21
45.4852481577
 31
0.0
  0
LINE
  5
4F8
330
1B
100
AcDbEntity
 67
     1
  8
0
  6
Continuous
 62
     7
370
    25
100
AcDbLine
 10
81.0306863983
 20
32.5840019741
 30
0.0
 11
81.1173533513
 21
32.3582268425
 31
0.0
  0
LINE
  5
4F9
330
1B
100
AcDbEntity
 67
     1
  8
0
  6
Continuous
 62
     7
370
    25
100
AcDbLine
 10
114.6066861938
 20
45.4883778944
 30
0.0
 11
81.0530383597
 21
32.6083392467
 31
0.0
  0
LINE
  5
4FA
330
1B
100
AcDbEntity
 67
     1
  8
0
  6
Continuous
 62
     7
370
    25
100
AcDbLine
 10
80.5863083286
 20
32.4291783736
 30
0.0
 11
69.8125088603
 21
28.2935042371
 31
0.0
  0
LINE
  5
4FB
330
1B
100
AcDbEntity
 67
     1
  8
0
  6
Continuous
 62
     7
370
    25
100
AcDbLine
 10
178.1578383339
 20
69.8833795861
 30
0.0
 11
115.073416225
 21
45.6675387675
 31
0.0
  0
LINE
  5
4FC
330
1B
100
AcDbEntity
 67
     1
  8
0
  6
Continuous
 62
     7
370
    25
100
AcDbLine
 10
80.6135473466
 20
0.3052846439
 30
0.0
 11
188.9088768203
 21
41.8759667912
 31
0.0
  0
LINE
  5
4FD
330
1B
100
AcDbEntity
 67
     1
  8
0
  6
Continuous
 62
     7
370
    25
100
AcDbLine
 10
194.9203656822
 20
49.3679029314
 30
0.0
 11
196.0459410572
 21
49.7999708367
 31
0.0
  0
LINE
  5
4FE
330
1B
100
AcDbEntity
 67
     1
  8
0
  6
Continuous
 62
     7
370
    25
100
AcDbLine
 10
192.8664887439
 20
48.5794934424
 30
0.0
 11
193.992064119
 21
49.0115613477
 31
0.0
  0
LINE
  5
4FF
330
1B
100
AcDbEntity
 67
     1
  8
0
  6
Continuous
 62
     7
370
    25
100
AcDbLine
 10
190.8126118056
 20
47.7910839534
 30
0.0
 11
191.9381871807
 21
48.2231518587
 31
0.0
  0
LINE
  5
500
330
1B
100
AcDbEntity
 67
     1
  8
0
  6
Continuous
 62
     7
370
    25
100
AcDbLine
 10
188.7587348673
 20
47.0026744644
 30
0.0
 11
189.8843102424
 21
47.4347423697
 31
0.0
  0
LINE
  5
501
330
1B
100
AcDbEntity
 67
     1
  8
0
  6
Continuous
 62
     7
370
    25
100
AcDbLine
 10
187.1743759445
 20
46.3944960554
 30
0.0
 11
188.2946724563
 21
46.8245375949
 31
0.0
  0
LINE
  5
502
330
1B
100
AcDbEntity
 67
     1
  8
0
  6
Continuous
 62
     7
370
    25
100
AcDbLine
 10
181.5753350385
 20
66.0108918916
 30
0.0
 11
179.8923392097
 21
65.3648503218
 31
0.0
  0
LINE
  5
503
330
1B
100
AcDbEntity
 67
     1
  8
0
  6
Continuous
 62
     7
370
    25
100
AcDbLine
 10
183.6292119768
 20
66.7993013806
 30
0.0
 11
182.5036366017
 21
66.3672334754
 31
0.0
  0
LINE
  5
504
330
1B
100
AcDbEntity
 67
     1
  8
0
  6
Continuous
 62
     7
370
    25
100
AcDbLine
 10
185.683088915
 20
67.5877108696
 30
0.0
 11
184.55751354
 21
67.1556429644
 31
0.0
  0
LINE
  5
505
330
1B
100
AcDbEntity
 67
     1
  8
0
  6
Continuous
 62
     7
370
    25
100
AcDbLine
 10
187.7369658533
 20
68.3761203586
 30
0.0
 11
186.6113904783
 21
67.9440524534
 31
0.0
  0
LINE
  5
506
330
1B
100
AcDbEntity
 67
     1
  8
0
  6
Continuous
 62
     7
370
    25
100
AcDbLine
 10
189.2281434747
 20
68.9485298173
 30
0.0
 11
188.6652674166
 21
68.7324619424
 31
0.0
  0
LINE
  5
507
330
1B
100
AcDbEntity
 67
     1
  8
0
  6
Continuous
 62
     7
370
    25
100
AcDbLine
 10
-11.5587487713
 20
14.0
 30
0.0
 11
-11.5587487713
 21
16.0
 31
0.0
  0
LINE
  5
508
330
1B
100
AcDbEntity
 67
     1
  8
0
  6
Continuous
 62
     7
370
    25
100
AcDbLine
 10
-16.4412512287
 20
16.0
 30
0.0
 11
-16.4412512287
 21
14.0
 31
0.0
  0
LINE
  5
509
330
1B
100
AcDbEntity
 67
     1
  8
0
  6
Continuous
 62
     7
370
    25
100
AcDbLine
 10
15.4412512287
 20
14.0
 30
0.0
 11
15.4412512287
 21
16.0
 31
0.0
  0
LINE
  5
50A
330
1B
100
AcDbEntity
 67
     1
  8
0
  6
Continuous
 62
     7
370
    25
100
AcDbLine
 10
10.5587487713
 20
16.0
 30
0.0
 11
10.5587487713
 21
14.0
 31
0.0
  0
LINE
  5
50B
330
1B
100
AcDbEntity
 67
     1
  8
0
  6
Continuous
 62
     7
370
    25
100
AcDbLine
 10
1.9412512287
 20
14.0
 30
0.0
 11
1.9412512287
 21
16.0
 31
0.0
  0
LINE
  5
50C
330
1B
100
AcDbEntity
 67
     1
  8
0
  6
Continuous
 62
     7
370
    25
100
AcDbLine
 10
-2.9412512287
 20
16.0
 30
0.0
 11
-2.9412512287
 21
14.0
 31
0.0
  0
LINE
  5
50D
330
1B
100
AcDbEntity
 67
     1
  8
0
  6
Continuous
 62
     7
370
    25
100
AcDbLine
 10
-4.0
 20
14.0
 30
0.0
 11
-4.0
 21
16.0
 31
0.0
  0
LINE
  5
50E
330
1B
100
AcDbEntity
 67
     1
  8
0
  6
Continuous
 62
     7
370
    25
100
AcDbLine
 10
-9.0
 20
16.0
 30
0.0
 11
-9.0
 21
14.0
 31
0.0
  0
LINE
  5
50F
330
1B
100
AcDbEntity
 67
     1
  8
0
  6
Continuous
 62
     7
370
    25
100
AcDbLine
 10
9.0
 20
14.0
 30
0.0
 11
9.0
 21
16.0
 31
0.0
  0
LINE
  5
510
330
1B
100
AcDbEntity
 67
     1
  8
0
  6
Continuous
 62
     7
370
    25
100
AcDbLine
 10
4.0
 20
16.0
 30
0.0
 11
4.0
 21
14.0
 31
0.0
  0
LINE
  5
511
330
1B
100
AcDbEntity
 67
     1
  8
0
  6
Continuous
 62
     7
370
    25
100
AcDbLine
 10
-17.0
 20
14.0
 30
0.0
 11
-17.0
 21
16.0
 31
0.0
  0
LINE
  5
512
330
1B
100
AcDbEntity
 67
     1
  8
0
  6
Continuous
 62
     7
370
    25
100
AcDbLine
 10
-22.0
 20
16.0
 30
0.0
 11
-22.0
 21
14.0
 31
0.0
  0
LINE
  5
513
330
1B
100
AcDbEntity
 67
     1
  8
0
  6
Continuous
 62
     7
370
    25
100
AcDbLine
 10
22.0
 20
14.0
 30
0.0
 11
22.0
 21
16.0
 31
0.0
  0
LINE
  5
514
330
1B
100
AcDbEntity
 67
     1
  8
0
  6
Continuous
 62
     7
370
    25
100
AcDbLine
 10
17.0
 20
16.0
 30
0.0
 11
17.0
 21
14.0
 31
0.0
  0
LINE
  5
515
330
1B
100
AcDbEntity
 67
     1
  8
0
  6
Continuous
 62
     7
370
    25
100
AcDbLine
 10
-11.5
 20
14.0
 30
0.0
 11
-11.5
 21
16.0
 31
0.0
  0
LINE
  5
516
330
1B
100
AcDbEntity
 67
     1
  8
0
  6
Continuous
 62
     7
370
    25
100
AcDbLine
 10
-16.5
 20
16.0
 30
0.0
 11
-16.5
 21
14.0
 31
0.0
  0
LINE
  5
517
330
1B
100
AcDbEntity
 67
     1
  8
0
  6
Continuous
 62
     7
370
    25
100
AcDbLine
 10
2.0
 20
14.0
 30
0.0
 11
2.0
 21
16.0
 31
0.0
  0
LINE
  5
518
330
1B
100
AcDbEntity
 67
     1
  8
0
  6
Continuous
 62
     7
370
    25
100
AcDbLine
 10
-3.0
 20
16.0
 30
0.0
 11
-3.0
 21
14.0
 31
0.0
  0
LINE
  5
519
330
1B
100
AcDbEntity
 67
     1
  8
0
  6
Continuous
 62
     7
370
    25
100
AcDbLine
 10
15.5
 20
14.0
 30
0.0
 11
15.5
 21
16.0
 31
0.0
  0
LINE
  5
51A
330
1B
100
AcDbEntity
 67
     1
  8
0
  6
Continuous
 62
     7
370
    25
100
AcDbLine
 10
10.5
 20
16.0
 30
0.0
 11
10.5
 21
14.0
 31
0.0
  0
LINE
  5
51B
330
1B
100
AcDbEntity
 67
     1
  8
0
  6
Continuous
 62
     7
370
    25
100
AcDbLine
 10
107.0928556552
 20
40.0312888007
 30
0.0
 11
90.2884079782
 21
33.5806657089
 31
0.0
  0
LINE
  5
51C
330
1B
100
AcDbEntity
 67
     1
  8
0
  6
Continuous
 62
     7
370
    25
100
AcDbLine
 10
-57.5
 20
-0.1
 30
0.0
 11
-57.5
 21
14.0
 31
0.0
  0
LINE
  5
51D
330
1B
100
AcDbEntity
 67
     1
  8
0
  6
Continuous
 62
     7
370
    25
100
AcDbLine
 10
57.5
 20
16.0
 30
0.0
 11
57.5
 21
-2.0
 31
0.0
  0
LINE
  5
51E
330
1B
100
AcDbEntity
 67
     1
  8
0
  6
Continuous
 62
     7
370
    25
100
AcDbLine
 10
47.5
 20
-0.1188032358
 30
0.0
 11
47.5
 21
14.496268726
 31
0.0
  0
LINE
  5
51F
330
1B
100
AcDbEntity
 67
     1
  8
0
  6
Continuous
 62
     7
370
    25
100
AcDbLine
 10
-47.5
 20
14.0
 30
0.0
 11
-47.5
 21
0.0
 31
0.0
  0
LINE
  5
520
330
1B
100
AcDbEntity
 67
     1
  8
0
  6
Continuous
 62
     7
370
    25
100
AcDbLine
 10
-57.5
 20
14.0
 30
0.0
 11
37.5
 21
14.0
 31
0.0
  0
LINE
  5
521
330
1B
100
AcDbEntity
 67
     1
  8
0
  6
Continuous
 62
     7
370
    25
100
AcDbLine
 10
-51.68267824
 20
0.0
 30
0.0
 11
-30.1101577058
 21
0.0
 31
0.0
  0
LINE
  5
522
330
1B
100
AcDbEntity
 67
     1
  8
0
  6
Continuous
 62
     7
370
    25
100
AcDbLine
 10
80.6135473392
 20
0.3052846632
 30
0.0
 11
69.8625088673
 21
28.3126974206
 31
0.0
  0
LINE
  5
523
330
1B
100
AcDbEntity
 67
     1
  8
0
  6
Continuous
 62
     7
370
    25
100
AcDbLine
 10
30.8526539614
 20
16.0
 30
0.0
 11
30.5
 21
14.0
 31
0.0
  0
LINE
  5
524
330
1B
100
AcDbEntity
 67
     1
  8
0
  6
Continuous
 62
     7
370
    25
100
AcDbLine
 10
30.8526539614
 20
16.0
 30
0.0
 11
34.1473460386
 21
16.0
 31
0.0
  0
LINE
  5
525
330
1B
100
AcDbEntity
 67
     1
  8
0
  6
Continuous
 62
     7
370
    25
100
AcDbLine
 10
34.1473460386
 20
16.0
 30
0.0
 11
34.5
 21
14.0
 31
0.0
  0
LINE
  5
526
330
1B
100
AcDbEntity
 67
     1
  8
0
  6
Continuous
 62
     7
370
    25
100
AcDbLine
 10
-21.1473460386
 20
16.0
 30
0.0
 11
-21.5
 21
14.0
 31
0.0
  0
LINE
  5
527
330
1B
100
AcDbEntity
 67
     1
  8
0
  6
Continuous
 62
     7
370
    25
100
AcDbLine
 10
-22.0
 20
16.0
 30
0.0
 11
-17.0
 21
16.0
 31
0.0
  0
LINE
  5
528
330
1B
100
AcDbEntity
 67
     1
  8
0
  6
Continuous
 62
     7
370
    25
100
AcDbLine
 10
-17.8526539614
 20
16.0
 30
0.0
 11
-17.5
 21
14.0
 31
0.0
  0
LINE
  5
529
330
1B
100
AcDbEntity
 67
     1
  8
0
  6
Continuous
 62
     7
370
    25
100
AcDbLine
 10
-47.1473460386
 20
16.0
 30
0.0
 11
-47.5
 21
14.0
 31
0.0
  0
LINE
  5
52A
330
1B
100
AcDbEntity
 67
     1
  8
0
  6
Continuous
 62
     7
370
    25
100
AcDbLine
 10
-47.1473460386
 20
16.0
 30
0.0
 11
-43.8526539614
 21
16.0
 31
0.0
  0
LINE
  5
52B
330
1B
100
AcDbEntity
 67
     1
  8
0
  6
Continuous
 62
     7
370
    25
100
AcDbLine
 10
-43.8526539614
 20
16.0
 30
0.0
 11
-43.5
 21
14.0
 31
0.0
  0
LINE
  5
52C
330
1B
100
AcDbEntity
 67
     1
  8
0
  6
Continuous
 62
     7
370
    25
100
AcDbLine
 10
17.8526539614
 20
16.0
 30
0.0
 11
17.5
 21
14.0
 31
0.0
  0
LINE
  5
52D
330
1B
100
AcDbEntity
 67
     1
  8
0
  6
Continuous
 62
     7
370
    25
100
AcDbLine
 10
17.0
 20
16.0
 30
0.0
 11
22.0
 21
16.0
 31
0.0
  0
LINE
  5
52E
330
1B
100
AcDbEntity
 67
     1
  8
0
  6
Continuous
 62
     7
370
    25
100
AcDbLine
 10
21.1473460386
 20
16.0
 30
0.0
 11
21.5
 21
14.0
 31
0.0
  0
LINE
  5
52F
330
1B
100
AcDbEntity
 67
     1
  8
0
  6
Continuous
 62
     7
370
    25
100
AcDbLine
 10
-34.1473460386
 20
16.0
 30
0.0
 11
-34.5
 21
14.0
 31
0.0
  0
LINE
  5
530
330
1B
100
AcDbEntity
 67
     1
  8
0
  6
Continuous
 62
     7
370
    25
100
AcDbLine
 10
-34.1473460386
 20
16.0
 30
0.0
 11
-30.8526539614
 21
16.0
 31
0.0
  0
LINE
  5
531
330
1B
100
AcDbEntity
 67
     1
  8
0
  6
Continuous
 62
     7
370
    25
100
AcDbLine
 10
-30.8526539614
 20
16.0
 30
0.0
 11
-30.5
 21
14.0
 31
0.0
  0
LINE
  5
532
330
1B
100
AcDbEntity
 67
     1
  8
0
  6
Continuous
 62
     7
370
    25
100
AcDbLine
 10
4.8526539614
 20
16.0
 30
0.0
 11
4.5
 21
14.0
 31
0.0
  0
LINE
  5
533
330
1B
100
AcDbEntity
 67
     1
  8
0
  6
Continuous
 62
     7
370
    25
100
AcDbLine
 10
4.0
 20
16.0
 30
0.0
 11
9.0
 21
16.0
 31
0.0
  0
LINE
  5
534
330
1B
100
AcDbEntity
 67
     1
  8
0
  6
Continuous
 62
     7
370
    25
100
AcDbLine
 10
8.1473460386
 20
16.0
 30
0.0
 11
8.5
 21
14.0
 31
0.0
  0
LINE
  5
535
330
1B
100
AcDbEntity
 67
     1
  8
0
  6
Continuous
 62
     7
370
    25
100
AcDbLine
 10
-8.1473460386
 20
16.0
 30
0.0
 11
-8.5
 21
14.0
 31
0.0
  0
LINE
  5
536
330
1B
100
AcDbEntity
 67
     1
  8
0
  6
Continuous
 62
     7
370
    25
100
AcDbLine
 10
-9.0
 20
16.0
 30
0.0
 11
-4.0
 21
16.0
 31
0.0
  0
LINE
  5
537
330
1B
100
AcDbEntity
 67
     1
  8
0
  6
Continuous
 62
     7
370
    25
100
AcDbLine
 10
-4.8526539614
 20
16.0
 30
0.0
 11
-4.5
 21
14.0
 31
0.0
  0
LINE
  5
538
330
1B
100
AcDbEntity
 67
     1
  8
0
  6
Continuous
 62
     7
370
    25
100
AcDbLine
 10
43.8526539614
 20
16.0
 30
0.0
 11
47.1473460386
 21
16.0
 31
0.0
  0
LINE
  5
539
330
1B
100
AcDbEntity
 67
     1
  8
0
  6
Continuous
 62
     7
370
    25
100
AcDbLine
 10
47.1473460386
 20
16.0
 30
0.0
 11
47.4139967506
 21
14.487748665
 31
0.0
  0
LINE
  5
53A
330
1B
100
AcDbEntity
 67
     1
  8
0
  6
Continuous
 62
     7
370
    25
100
AcDbLine
 10
43.8526539614
 20
16.0
 30
0.0
 11
43.531786823
 21
14.1802720311
 31
0.0
  0
LINE
  5
53B
330
1B
100
AcDbEntity
 67
     1
  8
0
  6
Continuous
 62
     7
370
    25
100
AcDbLine
 10
107.1997087384
 20
39.7529270021
 30
0.0
 11
90.3952610615
 21
33.3023039103
 31
0.0
  0
LINE
  5
53C
330
1B
100
AcDbEntity
 67
     1
  8
0
  6
Continuous
 62
     7
370
    25
100
AcDbLine
 10
72.7294524566
 20
20.8440540268
 30
0.0
 11
181.0247819303
 21
62.4147361741
 31
0.0
  0
LINE
  5
53D
330
1B
100
AcDbEntity
 67
     1
  8
0
  6
Continuous
 62
     7
370
    25
100
AcDbLine
 10
77.7466037503
 20
7.7739280559
 30
0.0
 11
186.0419332239
 21
49.3446102031
 31
0.0
  0
LINE
  5
53E
330
1B
100
AcDbEntity
 67
     1
  8
0
  6
Continuous
 62
     7
370
    25
100
AcDbLine
 10
178.1578383339
 20
69.8833795861
 30
0.0
 11
188.9088768203
 21
41.8759667912
 31
0.0
  0
LINE
  5
53F
330
1B
100
AcDbEntity
 67
     1
  8
0
  6
Continuous
 62
     7
370
    25
100
AcDbLine
 10
189.2281434747
 20
68.9485298173
 30
0.0
 11
193.4103891792
 21
58.0534072667
 31
0.0
  0
LINE
  5
540
330
1B
100
AcDbEntity
 67
     1
  8
0
  6
Continuous
 62
     7
370
    25
100
AcDbLine
 10
188.7581840605
 20
47.0024784625
 30
0.0
 11
188.2946724563
 21
46.8245375949
 31
0.0
  0
LINE
  5
541
330
1B
100
AcDbEntity
 67
     1
  8
0
  6
Continuous
 62
     7
370
    25
100
AcDbLine
 10
-16.5
 20
16.0
 30
0.0
 11
-11.5
 21
16.0
 31
0.0
  0
LINE
  5
542
330
1B
100
AcDbEntity
 67
     1
  8
0
  6
Continuous
 62
     7
370
    25
100
AcDbLine
 10
10.5
 20
16.0
 30
0.0
 11
15.5
 21
16.0
 31
0.0
  0
LINE
  5
543
330
1B
100
AcDbEntity
 67
     1
  8
0
  6
Continuous
 62
     7
370
    25
100
AcDbLine
 10
-3.0
 20
16.0
 30
0.0
 11
2.0
 21
16.0
 31
0.0
  0
LINE
  5
544
330
1B
100
AcDbEntity
 67
     1
  8
0
  6
Continuous
 62
     8
370
    25
100
AcDbLine
 10
107.0928556552
 20
40.0312888007
 30
0.0
 11
107.1997087384
 21
39.7529270021
 31
0.0
  0
LINE
  5
545
330
1B
100
AcDbEntity
 67
     1
  8
0
  6
Continuous
 62
     8
370
    25
100
AcDbLine
 10
90.2884079782
 20
33.5806657089
 30
0.0
 11
90.3952610615
 21
33.3023039103
 31
0.0
  0
ARC
  5
546
330
1B
100
AcDbEntity
 67
     1
  8
0
  6
Continuous
 62
     7
370
    25
100
AcDbCircle
 10
37.5
 20
115.0
 30
0.0
 40
101.0000000000286
100
AcDbArc
 50
270.0
 51
275.6821590363
  0
VIEWPORT
  5
5E6
330
1B
100
AcDbEntity
 67
     1
  8
0
100
AcDbViewport
 10
0.0
 20
0.0
 30
0.0
 40
205.6
 41
156.0
 68
     1
 69
     1
 12
0.0
 22
69.3536295787
 13
0.0
 23
0.0
 14
10.0
 24
10.0
 15
10.0
 25
10.0
 16
0.0
 26
0.0
 36
1.0
 17
0.0
 27
0.0
 37
0.0
 42
50.0
 43
0.0
 44
0.0
 45
258.7814043406
 50
0.0
 51
0.0
 72
   100
 90
   557152
  1

281
     0
 71
     1
 74
     0
110
0.0
120
0.0
130
0.0
111
1.0
121
0.0
131
0.0
112
0.0
122
1.0
132
0.0
 79
     0
146
0.0
  0
ENDSEC
  0
SECTION
  2
OBJECTS
  0
DICTIONARY
  5
C
330
0
100
AcDbDictionary
281
     1
  3
ACAD_GROUP
350
D
  3
ACAD_LAYOUT
350
1A
  3
ACAD_MLINESTYLE
350
17
  3
ACAD_PLOTSETTINGS
350
19
  3
ACAD_PLOTSTYLENAME
350
E
  3
ACAD_SCALELIST
350
47
  0
DICTIONARY
  5
D
102
{ACAD_REACTORS
330
C
102
}
330
C
100
AcDbDictionary
281
     1
  0
DICTIONARY
  5
1A
102
{ACAD_REACTORS
330
C
102
}
330
C
100
AcDbDictionary
281
     1
  3
_Back
350
26
  3
_Bottom
350
5A2
  3
_Right
350
1E
  3
Model
350
22
  0
DICTIONARY
  5
17
102
{ACAD_REACTORS
330
C
102
}
330
C
100
AcDbDictionary
281
     1
  3
Standard
350
18
  0
DICTIONARY
  5
19
102
{ACAD_REACTORS
330
C
102
}
330
C
100
AcDbDictionary
281
     1
  0
ACDBDICTIONARYWDFLT
  5
E
102
{ACAD_REACTORS
330
C
102
}
330
C
100
AcDbDictionary
281
     1
  3
Normal
350
F
100
AcDbDictionaryWithDefault
340
F
  0
DICTIONARY
  5
47
102
{ACAD_REACTORS
330
C
102
}
330
C
100
AcDbDictionary
281
     1
  3
A0
350
48
  3
A1
350
49
  3
A2
350
4A
  3
A3
350
4B
  3
A4
350
4C
  3
A5
350
4D
  3
A6
350
4E
  3
A7
350
4F
  3
A8
350
50
  3
A9
350
51
  3
B0
350
52
  3
B1
350
53
  3
B2
350
54
  3
B3
350
55
  3
B4
350
56
  3
B5
350
57
  3
B6
350
58
  3
B7
350
59
  3
B8
350
5A
  3
B9
350
5B
  3
C0
350
5C
  3
C1
350
5D
  3
C2
350
5E
  3
C3
350
5F
  3
C4
350
60
  3
C5
350
61
  3
C6
350
62
  3
C7
350
63
  3
C8
350
64
  3
C9
350
65
  3
D0
350
66
  3
D1
350
67
  3
D2
350
68
  0
LAYOUT
  5
26
102
{ACAD_REACTORS
330
1A
102
}
330
1A
100
AcDbPlotSettings
  1

  2
none_device
  4
ISO_A4_(210.00_x_297.00_MM)
  6

 40
7.5
 41
20.0
 42
7.5
 43
20.0
 44
210.0
 45
297.0
 46
0.0
 47
0.0
 48
0.0
 49
0.0
140
0.0
141
0.0
142
1.0
143
0.9872201127
 70
   688
 72
     1
 73
     1
 74
     1
  7

 75
     0
147
1.0129453272
148
57.5
149
2.0645260884
100
AcDbLayout
  1
_Back
 70
     1
 71
     2
 10
0.0
 20
0.0
 11
0.0
 21
0.0
 12
0.0
 22
0.0
 32
0.0
 14
0.0
 24
0.0
 34
0.0
 15
0.0
 25
0.0
 35
0.0
146
0.0
 13
0.0
 23
0.0
 33
0.0
 16
1.0
 26
0.0
 36
0.0
 17
0.0
 27
1.0
 37
0.0
 76
     0
330
23
331
5E8
  0
LAYOUT
  5
5A2
102
{ACAD_REACTORS
330
1A
102
}
330
1A
100
AcDbPlotSettings
  1

  2
none_device
  4
ISO_A4_(210.00_x_297.00_MM)
  6

 40
7.5
 41
20.0
 42
7.5
 43
20.0
 44
210.0
 45
297.0
 46
0.0
 47
0.0
 48
0.0
 49
0.0
140
0.0
141
0.0
142
1.0
143
0.9872201127
 70
   688
 72
     1
 73
     1
 74
     1
  7

 75
     0
147
1.0129453272
148
57.5
149
2.0645260884
100
AcDbLayout
  1
_Bottom
 70
     1
 71
     3
 10
0.0
 20
0.0
 11
0.0
 21
0.0
 12
0.0
 22
0.0
 32
0.0
 14
0.0
 24
0.0
 34
0.0
 15
0.0
 25
0.0
 35
0.0
146
0.0
 13
0.0
 23
0.0
 33
0.0
 16
1.0
 26
0.0
 36
0.0
 17
0.0
 27
1.0
 37
0.0
 76
     0
330
5A1
331
5EA
  0
LAYOUT
  5
1E
102
{ACAD_REACTORS
330
1A
102
}
330
1A
100
AcDbPlotSettings
  1

  2
none_device
  4
ISO_A4_(210.00_x_297.00_MM)
  6

 40
7.5
 41
20.0
 42
7.5
 43
20.0
 44
210.0
 45
297.0
 46
0.0
 47
0.0
 48
0.0
 49
0.0
140
0.0
141
0.0
142
1.0
143
0.9872201127
 70
   688
 72
     1
 73
     1
 74
     1
  7

 75
     0
147
1.0129453272
148
57.5
149
2.0645260884
100
AcDbLayout
  1
_Right
 70
     1
 71
     1
 10
-77.2444022531
 20
-9.4686769333
 11
215.9599712051
 21
197.847546724
 12
0.0
 22
0.0
 32
0.0
 14
-57.5
 24
-2.0645260884
 34
0.0
 15
196.215568952
 25
69.8833795861
 35
0.0
146
0.0
 13
0.0
 23
0.0
 33
0.0
 16
1.0
 26
0.0
 36
0.0
 17
0.0
 27
1.0
 37
0.0
 76
     0
330
1B
331
5E6
  0
LAYOUT
  5
22
102
{ACAD_REACTORS
330
1A
102
}
330
1A
100
AcDbPlotSettings
  1

  2
none_device
  4
ANSI_A_(11.00_x_8.50_Inches)
  6

 40
6.35
 41
19.05
 42
6.35000508
 43
19.05000254
 44
279.4
 45
215.9
 46
133.34999746
 47
30.4715793422
 48
0.0
 49
0.0
140
0.0
141
0.0
142
0.0331681483
143
1.0
 70
  1696
 72
     0
 73
     0
 74
     0
  7

 75
     0
147
0.0179189148
148
-1300.4909072572
149
0.0
100
AcDbLayout
  1
Model
 70
     1
 71
     0
 10
0.0
 20
0.0
 11
420.0
 21
297.0
 12
0.0
 22
0.0
 32
0.0
 14
-39.5
 24
-57.5
 34
0.0
 15
39.5
 25
196.2072591575
 35
0.0
146
0.0
 13
0.0
 23
0.0
 33
0.0
 16
1.0
 26
0.0
 36
0.0
 17
0.0
 27
1.0
 37
0.0
 76
     0
330
1F
331
29
  0
MLINESTYLE
  5
18
102
{ACAD_REACTORS
330
17
102
}
330
17
100
AcDbMlineStyle
  2
Standard
 70
     0
  3

 62
   256
 51
90.0
 52
90.0
 71
     2
 49
0.5
 62
   256
  6
BYLAYER
 49
-0.5
 62
   256
  6
BYLAYER
  0
ACDBPLACEHOLDER
  5
F
102
{ACAD_REACTORS
330
E
102
}
330
E
  0
SCALE
  5
48
102
{ACAD_REACTORS
330
47
102
}
330
47
100
AcDbScale
 70
     0
300
1:1
140
1.0
141
1.0
290
     1
  0
SCALE
  5
49
102
{ACAD_REACTORS
330
47
102
}
330
47
100
AcDbScale
 70
     0
300
1:2
140
1.0
141
2.0
290
     0
  0
SCALE
  5
4A
102
{ACAD_REACTORS
330
47
102
}
330
47
100
AcDbScale
 70
     0
300
1:4
140
1.0
141
4.0
290
     0
  0
SCALE
  5
4B
102
{ACAD_REACTORS
330
47
102
}
330
47
100
AcDbScale
 70
     0
300
1:5
140
1.0
141
5.0
290
     0
  0
SCALE
  5
4C
102
{ACAD_REACTORS
330
47
102
}
330
47
100
AcDbScale
 70
     0
300
1:8
140
1.0
141
8.0
290
     0
  0
SCALE
  5
4D
102
{ACAD_REACTORS
330
47
102
}
330
47
100
AcDbScale
 70
     0
300
1:10
140
1.0
141
10.0
290
     0
  0
SCALE
  5
4E
102
{ACAD_REACTORS
330
47
102
}
330
47
100
AcDbScale
 70
     0
300
1:16
140
1.0
141
16.0
290
     0
  0
SCALE
  5
4F
102
{ACAD_REACTORS
330
47
102
}
330
47
100
AcDbScale
 70
     0
300
1:20
140
1.0
141
20.0
290
     0
  0
SCALE
  5
50
102
{ACAD_REACTORS
330
47
102
}
330
47
100
AcDbScale
 70
     0
300
1:30
140
1.0
141
30.0
290
     0
  0
SCALE
  5
51
102
{ACAD_REACTORS
330
47
102
}
330
47
100
AcDbScale
 70
     0
300
1:40
140
1.0
141
40.0
290
     0
  0
SCALE
  5
52
102
{ACAD_REACTORS
330
47
102
}
330
47
100
AcDbScale
 70
     0
300
1:50
140
1.0
141
50.0
290
     0
  0
SCALE
  5
53
102
{ACAD_REACTORS
330
47
102
}
330
47
100
AcDbScale
 70
     0
300
1:100
140
1.0
141
100.0
290
     0
  0
SCALE
  5
54
102
{ACAD_REACTORS
330
47
102
}
330
47
100
AcDbScale
 70
     0
300
2:1
140
2.0
141
1.0
290
     0
  0
SCALE
  5
55
102
{ACAD_REACTORS
330
47
102
}
330
47
100
AcDbScale
 70
     0
300
4:1
140
4.0
141
1.0
290
     0
  0
SCALE
  5
56
102
{ACAD_REACTORS
330
47
102
}
330
47
100
AcDbScale
 70
     0
300
8:1
140
8.0
141
1.0
290
     0
  0
SCALE
  5
57
102
{ACAD_REACTORS
330
47
102
}
330
47
100
AcDbScale
 70
     0
300
10:1
140
10.0
141
1.0
290
     0
  0
SCALE
  5
58
102
{ACAD_REACTORS
330
47
102
}
330
47
100
AcDbScale
 70
     0
300
100:1
140
100.0
141
1.0
290
     0
  0
SCALE
  5
59
102
{ACAD_REACTORS
330
47
102
}
330
47
100
AcDbScale
 70
     0
300
1/128" = 1'-0"
140
0.0078125
141
12.0
290
     0
  0
SCALE
  5
5A
102
{ACAD_REACTORS
330
47
102
}
330
47
100
AcDbScale
 70
     0
300
1/64" = 1'-0"
140
0.015625
141
12.0
290
     0
  0
SCALE
  5
5B
102
{ACAD_REACTORS
330
47
102
}
330
47
100
AcDbScale
 70
     0
300
1/32" = 1'-0"
140
0.03125
141
12.0
290
     0
  0
SCALE
  5
5C
102
{ACAD_REACTORS
330
47
102
}
330
47
100
AcDbScale
 70
     0
300
1/16" = 1'-0"
140
0.0625
141
12.0
290
     0
  0
SCALE
  5
5D
102
{ACAD_REACTORS
330
47
102
}
330
47
100
AcDbScale
 70
     0
300
3/32" = 1'-0"
140
0.09375
141
12.0
290
     0
  0
SCALE
  5
5E
102
{ACAD_REACTORS
330
47
102
}
330
47
100
AcDbScale
 70
     0
300
1/8" = 1'-0"
140
0.125
141
12.0
290
     0
  0
SCALE
  5
5F
102
{ACAD_REACTORS
330
47
102
}
330
47
100
AcDbScale
 70
     0
300
3/16" = 1'-0"
140
0.1875
141
12.0
290
     0
  0
SCALE
  5
60
102
{ACAD_REACTORS
330
47
102
}
330
47
100
AcDbScale
 70
     0
300
1/4" = 1'-0"
140
0.25
141
12.0
290
     0
  0
SCALE
  5
61
102
{ACAD_REACTORS
330
47
102
}
330
47
100
AcDbScale
 70
     0
300
3/8" = 1'-0"
140
0.375
141
12.0
290
     0
  0
SCALE
  5
62
102
{ACAD_REACTORS
330
47
102
}
330
47
100
AcDbScale
 70
     0
300
1/2" = 1'-0"
140
0.5
141
12.0
290
     0
  0
SCALE
  5
63
102
{ACAD_REACTORS
330
47
102
}
330
47
100
AcDbScale
 70
     0
300
3/4" = 1'-0"
140
0.75
141
12.0
290
     0
  0
SCALE
  5
64
102
{ACAD_REACTORS
330
47
102
}
330
47
100
AcDbScale
 70
     0
300
1" = 1'-0"
140
1.0
141
12.0
290
     0
  0
SCALE
  5
65
102
{ACAD_REACTORS
330
47
102
}
330
47
100
AcDbScale
 70
     0
300
1-1/2" = 1'-0"
140
1.5
141
12.0
290
     0
  0
SCALE
  5
66
102
{ACAD_REACTORS
330
47
102
}
330
47
100
AcDbScale
 70
     0
300
3" = 1'-0"
140
3.0
141
12.0
290
     0
  0
SCALE
  5
67
102
{ACAD_REACTORS
330
47
102
}
330
47
100
AcDbScale
 70
     0
300
6" = 1'-0"
140
6.0
141
12.0
290
     0
  0
SCALE
  5
68
102
{ACAD_REACTORS
330
47
102
}
330
47
100
AcDbScale
 70
     0
300
1'-0" = 1'-0"
140
12.0
141
12.0
290
     0
  0
ENDSEC
  0
EOF
